Face to Face

Face to Face - Handout guitar tab

----------------------------------------------------------------------------

HANDOUT - Face To Face

----------------------------------------------------------------------------

Tabbed by: Jesse Benedick

Email: JBMetal311@yahoo.com

Tuning: Standard

e|---------------------------|----|----------|---|-------------------------|

B|------4-----5-----4-----7--|----|----------|---|-------------------------|

G|----4-----4-----4-----4----|-11-|--4--6-4--|-8-|--4----------------------|

D|--4-----4-----4-----4------|-11-|--4--x-x--|-x-|--4----------------------|

A|---------------------------|-9--|--2--4-2--|-6-|--2----------------------|

E|---------------------------|----|----------|---|-------------------------|

Opening Notes Repeat 3x "What does it take....

e|---------------------|---------------|

B|---------------------|---------------|

G|----------------4----|---------------|

D|-4----6----2----4----|--6--7----9----|

A|-4----6----2----2----|--6--7----9----|

E|-2----4----0---------|--4--5----7----|

Chorus Breakdown

| / slide up

| slide down

| h hammer-on

| p pull-off

| ~ vibrato

| + harmonic

| x Mute note

============================================================================

Get this song at:  amazon.com sheetmusicplus.com

Share your thoughts

0 Comments found