Face to Face

Face to Face - Hand Out guitar tab

-------------------------------------------------------------------------------

HANDOUT - Face to Face

-------------------------------------------------------------------------------

By:John McCorkindale (johnm@umail.ucsb.edu)

Intro A 33X (really fast)

e|---------------------------------------------------------------------------|

B|-----4---5---4---7---4---5---4---7-----------------------------------------|

G|----4---4---4---4---4---4---4---4----9-------------------------------------|

D|---4---4---4---4---4---4---4---4-----9-------------------------------------|

A|-------------------------------------7-------------------------------------|

E|---------------------------------------------------------------------------|

Intro B 3X 8X

e|---------------------------------------------------------------------------|

B|---------------------------------------------------------------------------|

G|------11-9--13-------------------------------------------------------------|

D|--9-9-11-9--13-------------------------------------------------------------|

A|--9-9-9--7--11-------------------------------------------------------------|

E|--7-7----------------------------------------------------------------------|

Verse [23X(fast) 8X(fast)] 4X "I know your never wrong"

e|---------------------------------------------------------------------------|

B|---------------------------------------------------------------------------|

G|----------------9----------------------------------------------------------|

D|-----9----------9-------------4--6--2--9-----------------------------------|

A|-----9----------7-------------4--6--2--9-----------------------------------|

E|-----7------------------------2--4--0--7-----------------------------------|

Repeat intro B and verse then repeat Intro A ( 4X )

e|---------------------------------------------------------------------------|

B|---------------------------------------------------------------------------|

G|---------------------------------------------------------------------------|

D|---6--7--9--4--2-----------------------------------------------------------|

A|---6--7--9--4--2-----------------------------------------------------------|

E|---4--5--7--2--0-----------------------------------------------------------|

Repeat Intro B and verse twice end by playing Intro A then let this note ring and fade

e|---------------------------------------------------------------------------|

B|---------------------------------------------------------------------------|

G|---------------------------------------------------------------------------|

D|--2------------------------------------------------------------------------|

A|--2------------------------------------------------------------------------|

E|--0------------------------------------------------------------------------|

==============================================================================

Get this song at:  amazon.com sheetmusicplus.com

Share your thoughts

0 Comments found