Face to Face

Face to Face - Graded On A Curve bass tab

Song : Graded on a curve

Artist : Face to face

Album : How to ruin everything

Tabbed by : Thierry Boudreault (axiom74@hotmail.com)

Intro & Verse

G|-------2-----2---------2-----2---------2-----2----------------|

D|-0-0-0---0-0---0-4-4-4---4-4---4-2-2-2---2-2---2/11---9---11--| 6

A|----------------------------------------------------9---9-----| X

E|--------------------------------------------------------------|

Chorus Part 1

G|------------------------------------------|

D|------------------------------------------| 2

A|-------------55555555-----------55555555--| X

E|-3-3-3-7-5------------3-3-3-7-5-----------|

Chorus Part 2

G|-----------|

D|-----------|

A|-----------|

E|-7>-3>-5>>-|

Play Chorus Part 1

Chorus Part 3

G|---------r-------------------------------------|

D|---------e-------------------------------------|

A|-2>-3/9--s-44444444/5555555522222222/77777777-|

E|---------t-------------------------------------|

Play Intro & Verse 4X

Play all the Chorus (part 1 , 2 , 1 , 3(only the riff before the rest))

Bridge

G|-------------------------------------|

D|-55555555----------------------------| 4

A|----------77777777-55555555----------| X

E|----------------------------55555555-|

Play Intro & Verse 4X

Play all the Chorus (part 1 , 2 , 1 , 3(only the riff before the rest)

Bridge 4X

Play Intro & Verse 4X but last time take off the 11-9-11 thing

That’s all. If you have any comments or requests or suggestions you can email me at axiom74@hotmail.com

Taken from The BassMasta -- http://www.tabs-database.com

Get this song at:  amazon.com sheetmusicplus.com

Share your thoughts

0 Comments found