Face to Face

Face to Face - Everythings Your Fault bass tab

face to face

Everything's your fault

tabbed by: intense@westol.com

this is the bridge, and it is way easier than it sounds

----------------------------------------------------------

-------12-12-------12-12-------12-12-------12-12------9-9-

-10-10-------10-10-------10-10-------10-10-------10/7-----

----------------------------------------------------------

---------------------------------------------------------

-----9-9-----9-9-----9-9-----7-7-----7-7-----7-7-----7-7-

-7-7-----7-7-----7-7-----5-5-----5-5-----5-5-----5-5-----

---------------------------------------------------------

---------------------------------

-----5-5-----5-5-----5-5-----5-5-

-3-3-----3-3-----3-3-----3-3-----

---------------------------------

Get this song at:  amazon.com sheetmusicplus.com

Share your thoughts

0 Comments found