Face to Face

Face to Face - Everything Is Your Fault guitar tab

-------------------------------------------------------------------------------

EVERYTHING'S YOUR FAULT - Face To Face

-------------------------------------------------------------------------------

By: Devon (dlb2gcb@market1.com)

By: Devon (dlb2gcb@market1.com)

Intro/chorus:

|---------------------------------------|

|---------------------------------------|

|-----------4------------------5-5-5--5-|

|--5---x-x--4---x-x---2--x-x---5-5-5--5-|

|--5--x--x--2---x-x---2--x-x---3-3-3--3-|

|--3--x--x------x-x---0--x-x------------|

Verse:

|---------------------------------------|-------------------------|

|---------------------------------------|-------------------------|

|---------------------------------------|--4--4---4-4--4---4-4-4--|

|--5--5---5--5-5---5-5--5---5-5--5-5----|--4--4---4-4--4---4-4-4--|

|--5--5---5--5-5---5-5--5---5-5--5-5----|--2--2---2-2--2---2-2-2--|

|--3--3---3--3-3---3-3--3---3-3--3-3----|-------------------------|

|---------------------------------------|-------------------------|

|---------------------------------------|-------------------------|

|---------------------------------------|-5--5---5-5--5---5-5-5---|

|--2--2---2--2-2----2-2--2---2--2-2--2--|-5--5---5-5--5---5-5-5---|

|--2--2---2--2-2----2-2--2---2--2-2--2--|-3--3---3-3--3---3-3-3---|

|--0--0---0--0-0----0-0--0---0--0-0--0--|-------------------------|

|---------------------------------------|-------------------------|

|---------------------------------------|-------------------------|

|---------------------------------------|-------------------------|

|--2--2---2--2-2----2-2--2---2--2-2--2--|--5--5---5--5-5---5-5--5-|

|--2--2---2--2-2----2-2--2---2--2-2--2--|--5--5---5--5-5---5-5--5-|

|--0--0---0--0-0----0-0--0---0--0-0--0--|--3--3---3--3-3---3-3--3-|

|---------------------------------------|----------------------------------|

|---------------------------------------|----------------------------------|

|--4--4---4-4--4---4-4-4---4--4--4-4----|-5--5---5-5--5---5-5-5---5-5--5-5-|

|--4--4---4-4--4---4-4-4---4--4--4-4----|-5--5---5-5--5---5-5-5---5-5--5-5-|

|--2--2---2-2--2---2-2-2---2--2--2-2----|-3--3---3-3--3---3-3-3---3-3--3-3-|

|---------------------------------------|----------------------------------|

Other Chorus Riff:

|---------------------------------------|

|---------------------------------------|

|---------------------------------------|

|--x--x-x--x--x-x---x--x-x---x---x------|

|--x--x-x--x--x-x---x--x--x--x---x------|

|--x--x-x--x--x-x---x--x--x--x---x------|

Bridge: bass plays Pick slide

|---------------------------------------|------------------|

|---------------------------------------|---------------/--|

|---------------------------------------|--------------/---|

|---5-----------------------------------|-------------/----|

|---5-----------------------------------|------------/-----|

|---3-----------------------------------|------------------|

|---------------------------------------|------------------|

|---------------------------------------|------------------|

|--7--5--4-------7--5-4------7--5-4-----|---4----4--5------|

|---------------------------------------|-5----5-----------|

|---------------------------------------|------------------|

|---------------------------------------|------------------|

=============================================================================

Get this song at:  amazon.com sheetmusicplus.com

Share your thoughts

0 Comments found