Face to Face

Face to Face - Everything Is Everything guitar tab

-------------------------------------------------------------------------------

EVERYTHING IS EVERYTHING - face to face

-------------------------------------------------------------------------------

Moon Doggie - xianmc@ssimicro

INTRO:

e|----------------------------------------------------------|

B|----------------------------------------------------------|

G|----------------7-7-7--7-7-7-----------------------7-7-7--|

D|--7-7-7--9-9-9--7-7-7--7-7-7--7-7-7--2-2-2--4-4-4--7-7-7--|

A|--7-7-7--9-9-9--5-5-5--5-5-5--7-7-7--2-2-2--4-4-4--5-5-5--|

E|--5-5-5--7-7-7----------------5-5-5--0-0-0--2-2-2---------|

VERSE:

A E A E D

We've got a lot of questions We've got a lot to learn

A E A E D

So tired of solving problems Too many bridges burned

A E A E D

We see it all so clearly and still we close our eyes

A E A D D

Why should we understand it? What good is knowing why?

CHORUS:

F# A E D

I know that life can be filled with these changes

F# A E

I know there's times when it feels like i'm failing

D (see below tab)

But I, I know something in my life will change again

e|----------------------------------------------------------|

B|----------------------------------------------------------|

G|----------------7-7-7--7-7-7-----------------------7-7-7--|

D|--7-7-7--9-9-9--7-7-7--7-7-7--7-7-7--2-2-2--4-4-4--7-7-7--|

A|--7-7-7--9-9-9--5-5-5--5-5-5--7-7-7--2-2-2--4-4-4--5-5-5--|

E|--5-5-5--7-7-7----------------5-5-5--0-0-0--2-2-2---------|

Again__________________ Ahh__ Ahh__ Ahh__ Ahh__

VERSE:

A E A E D

We've got a lot of questions We've got a lot to learn

A E A E D

So tired of solving problems Too many bridges burned

A E A E D

I can't change what's in the past I want to move ahead

A E A E D

I want to understand it Give me the reason why

CHORUS:

F# A E D

I know that life can be filled with these changes

F# A E

I know there's times when it feels like i'm failing

D (see below tab)

But I, I know something in my life will change again

e|----------------------------------------------------------|

B|----------------------------------------------------------|

G|----------------7-7-7--7-7-7-----------------------7-7-7--|

D|--7-7-7--9-9-9--7-7-7--7-7-7--7-7-7--2-2-2--4-4-4--7-7-7--|

A|--7-7-7--9-9-9--5-5-5--5-5-5--7-7-7--2-2-2--4-4-4--5-5-5--|

E|--5-5-5--7-7-7----------------5-5-5--0-0-0--2-2-2---------|

Again__________________ Ahh__ Ahh__ Ahh__ Ahh__

SOLO:

e|--------------------------------------------|

B|--------------------------------------------|

G|--------------------------------------------|

D|--7-----------------------------------------|

A|--7-----------------------------------------|

E|--5-(hold w/ feedback)----------------------|

e|-----------------------------------------------------------------|

B|-----------------------------------------------------------------|

G|-9-9-9-9-9-9-9-9-9-9-9-9-9-9-9-9-9-9-9-9-9-9-9-9-7-7-7-7-7-7-7-7-|

D|-7-7-7-7-7-7-7-7-7-7-7-7-7-7-7-7-7-7-7-7-7-7-7-7-7-7-7-7-7-7-7-7-|

A|-7-7-7-7-7-7-7-7-7-7-7-7-7-7-7-7-7-7-7-7-7-7-7-7-5-5-5-5-5-5-5-5-|

E|-----------------------------------------------------------------|

e|-----------------------------------------------------------------|

B|-----------------------------------------------------------------|

G|-9-9-9-9-9-9-9-9-9-9-9-9-9-9-9-9-9-9-9-9-9-9-9-9-7-7-7-7-7-7-7-7-|

D|-7-7-7-7-7-7-7-7-7-7-7-7-7-7-7-7-7-7-7-7-7-7-7-7-7-7-7-7-7-7-7-7-|

A|-7-7-7-7-7-7-7-7-7-7-7-7-7-7-7-7-7-7-7-7-7-7-7-7-5-5-5-5-5-5-5-5-|

E|-----------------------------------------------------------------|

A D A E

I'm tired of running these circles in my life

A D

I've seen the future it changes before my eyes

A E D

And I know that there is something that's going to change in my life

D (see below tab)

I know something in my life will change again

e|----------------------------------------------------------|

B|----------------------------------------------------------|

G|----------------7-7-7--7-7-7-----------------------7-7-7--|

D|--7-7-7--9-9-9--7-7-7--7-7-7--7-7-7--2-2-2--4-4-4--7-7-7--|

A|--7-7-7--9-9-9--5-5-5--5-5-5--7-7-7--2-2-2--4-4-4--5-5-5--|

E|--5-5-5--7-7-7----------------5-5-5--0-0-0--2-2-2---------|

Again__________________ Ahh__ Ahh__ Ahh__ Ahh__

e|--------------------|

B|--------------------|

G|-7-7-7-7-7-7-7-7----|

D|-7-7-7-7-7-7-7-7-7--|

A|-5-5-5-5-5-5-5-5-7--|

E|-----------------5--|

Yeah_____________.

----------------------------------------------------------------------------

Get this song at:  amazon.com sheetmusicplus.com

Share your thoughts

0 Comments found