Face to Face

Face to Face - Everyone Hates A Know-it-all guitar tab

-------------------------------------------------------------------------------

EVERYONE HATES A KNOW IT ALL - Face To Face

-------------------------------------------------------------------------------

Tabbed by : Josh Howard

C D2 G5 Em

e----------------------------------------------------------------------------

b----1-------3---------------------------------------------------------------

g--------------------------4-------------------------------------------------

d----2-------4-------------5------2------------------------------------------

a----3-------5-------------5------2------------------------------------------

e--------------------------3-------0-----------------------------------------

This is the verse and chorus part. Before Trever begins singing

the verses he extends the G.

The breakdown part would be: Em, G5, D2, C (I think, if I remember correctly)

If you're listening to the Full Length Album the lead guitar part sounds

like it's a picking pattern of the C bar chord up a few octaves. Give it

a listen and decide for your self.

-------------------------------------------------------------------------------

Get this song at:  amazon.com sheetmusicplus.com

Share your thoughts

0 Comments found