Face to Face

Face to Face - Estranged bass tab

ESTRANGED by Face To Face Album : Reactionary (2000)

:

# intro # x4

G-----------------------------|

D-----------------------------|

A---222-----------------------|

E--------555--3333--0--3333---|

:

# verse # X2 *=play x6

G--------------------------------------|

D----*--------*---*--------*---*---*---|

A---2----*---3---3----*---3---2---5----|

E-------5------------0-----------------|

:

# chorus #

G--------------*----5-4-------------------------------->|

D---------*---5---4-----7-5----*---5-4---------*---*--->|

A----*---3--------------------5--------/7-5---3---3---->|

E---0-------------------------------------------------->|

:

G----------------------------------------------|

D---------*------------*---5-4---------*---*---|

A----*---3----*---*---5--------/7-5---3---3----|

E---0--------3---3-----------------------------|

:

Then Play intro, verse, chorus, intro, chorus, intro

:

# outro # x4

G-----------------%--------|

D-----------------%--------|

A---222-----------%--------|

E--------555--33--%--333---|

:

Tabbed by Bradley Hall

Taken from The BassMasta -- http://www.tabs-database.com

Get this song at:  amazon.com sheetmusicplus.com

Share your thoughts

0 Comments found