Face to Face

Face to Face - Dont Change guitar tab

-------------------------------------------------------------------------------

DON'T CHANGE - Face To Face

-------------------------------------------------------------------------------

Transcribed by Me

[Don't Change]

Guitar 1: Fade In

E-|----------|-----------|----------|-----| x2

B-|----------|-----------|----------|-----|

G-|-14---9-/-|--11---6-/-|--9---4-/-|--6--|2nd time

D-|----------|-----------|----------|-----| full

A-|-12---7-/-|---9---4-/-|--7---2-/-|--4--|volume

E-|----------|-----------|----------|-----|

Guitar 2: Enter on 3rd bar on the 2nd time

E-|-------------|-------------|

B-|-------------|-------------| x2

G-|-14-14-14-14-|-14-14-14-14-|

D-|-------------|-------------|

A-|-12-12-12-12-|-12-12-12-12-|

E-|-------------|-------------|

[Riff 1]/w chord A

E-|----------------------------------|-------------------------------------|

B-|----------------------------------|-------------------------------------|

G-|-14-14-14-14-14-14-14-14-9-9-9-9/-|-11-11-11-11-11-11-11-11-11-6-6-6-6/-|

D-|----------------------------------|-------------------------------------|

A-|-12-12-12-12-12-12-12-12-7-7-7-7/-|--9--9--9--9--9--9--9--9--9-4-4-4-4/-|

E-|----------------------------------|-------------------------------------|

E-|----------------------------|--------------------| x2

B-|----------------------------|--------------------|

G-|-9-9-9-9-9-9-9-9-9-4-4-4-4/-|-6-6-6-6-6-6-6-6-6--|

D-|----------------------------|--------------------|

A-|-7-7-7-7-7-7-7-7-7-2-2-2-2/-|-4-4-4-4-4-4-4-4-4--|

E-|----------------------------|--------------------|

[Verse]

A

I'm standing here on the ground

F#

The sky above won't fall down

B D A

See no evil in all directions

A

Resolution of happiness

F#

Things have been dark for too long

[Chorus]

B D

Don't change for you

B D A/w Riff A

Don't change a thing for me

B D

Don't change for you

B D A

Don't change a thing for me

[Riff 1] only once

[Verse]

A

I found a love I had lost

F#

It was gone for too long

B D A

Hear no evil in all directions (directions)

A

Execution of bitterness

F#

Message received loud and clear

[Chorus]

B D

Don't change for you

B D A/w Riff A

Don't change a thing for me

B DDon't change for you

B D A

Don't change a thing for me

[Riff 1] guitar 2 enters after on 2nd time

[Verse]

A

I'm standing here on the ground

F#

The sky above won't fall down

B D A

See no evil in all directions

A

Resolution of happiness

F#

Things have been dark for too long

[Chorus]

B D

Don't change for you

B D A/w Riff A

Don't change a thing for me

B D

Don't change for you

B D A/w Riff A

Don't change a thing for me

B D

Don't change for you

B D A Don't change a thing for me

[Riff 1] only once

[Outro]

F# E D/w Riff A

Don't cha-a-a-a-nge

F# E D/w Riff A (x2)

Don't cha-a-a-a-nge

End on A.

[Riff A]

E-|-----------------|

B-|----------14-----| x2

G-|-14-14-14--------|

D-|--------------14-|

A-|-----------------|

E-|-----------------|

-------------------------------------------------------------------------------

Get this song at:  amazon.com sheetmusicplus.com

Share your thoughts

0 Comments found