Face to Face

Face to Face - Do You Care guitar tab

Hey guys this is my first tab so bear with me. I'm pretty sure its correct.

This is just the chords I don't know the solo stuff sorry man. This is how I

play it and it sounds really close, infact I think it is the same. This is

for both bass and guitar.

~ let ring

x palm mute

intro bass:

G:9-9-9-9-11-9-9-9-9-11-11--------------|

D:9-9-9-9-11-9-9-9-9-11-11--------------| x8 (guitar starts the 3 time)

A:--------------------------------------|

E:--------------------------------------|

intro guitar:

e:---------------------------|

B:---------------------------|

G:-----5---------------------| x4 (4th time palm mute)

D:2----5----5----------------|

A:2----3----5----------------|

E:0----------3---------------|

verse bass:

G:-------------------------------------------|

D:-------------------------------------------|

A:0-0-0-0-----------3-3-3-3-3-3-3-3----------| x4

E:----------2-2-2-2--------------------------|

verse guitar:

e:----------------------------|

B:----------------------------|

G:-----5----------------------|

D:2----5----5-----------------| x4

A:2----3----5-----------------|

E:0----------3----------------|

chorus bass:

G:--------------------------------------------------------------------|

D:--------------------------------------------------------------------|

A:7-7-7-10-10-10-10-10-3-3-3-7-7-7-7-7-10-10-10-10-10-10-10-10-7-7-7--| x2

E:--------------------------------------------------------------------|

chorus guitar:

e:--------------------------------------------------------------------|

B:--------------------------------------------------------------------|

G:5-5-5-12-12-12-12-12-5-5-5-9-9-9-9-9-12-12-12-12-12-12-12-12-9-9-9--|

D:5-5-5-12-12-12-12-12-5-5-5-9-9-9-9-9-12-12-12-12-12-12-12-12-9-9-9--| x2

A:7-7-7-10-10-10-10-10-3-3-3-7-7-7-7-7-10-10-10-10-10-10-10-10-7-7-7--|

E:--------------------------------------------------------------------|

intro bass:

G:9-9-9-9-11-9-9-9-9-11-11----------|

D:9-9-9-9-11-9-9-9-9-11-11----------| x8

A:----------------------------------|

E:----------------------------------|

intro guitar:

e:-----------------------------|

B:-----------------------------|

G:-----5-----------------------| x8

D:2----5----5------------------|

A:2----3----5------------------|

E:0----------3-----------------|

verse bass:

G:-----------------------------------------|

D:-----------------------------------------|

A:0-0-0-0-----------3-3-3-3-3-3-3-3--------| x4

E:----------2-2-2-2------------------------|

verse guitar:

e:----------------------------|

B:----------------------------|

G:-----5----------------------|

D:2----5----5-----------------| x4

A:2----3----5-----------------|

E:0----------3----------------|

chorus bass:

G:--------------------------------------------------------------------|

D:--------------------------------------------------------------------|

A:7-7-7-10-10-10-10-10-3-3-3-7-7-7-7-7-10-10-10-10-10-10-10-10-7-7-7--| x2

E:--------------------------------------------------------------------|

chorus guitar:

e:--------------------------------------------------------------------|

B:--------------------------------------------------------------------|

G:5-5-5-12-12-12-12-12-5-5-5-9-9-9-9-9-12-12-12-12-12-12-12-12-9-9-9--|

D:5-5-5-12-12-12-12-12-5-5-5-9-9-9-9-9-12-12-12-12-12-12-12-12-9-9-9--| x2

A:7-7-7-10-10-10-10-10-3-3-3-7-7-7-7-7-10-10-10-10-10-10-10-10-7-7-7--|

E:--------------------------------------------------------------------|

Some solo thing goes here I think but I don't know it sorry.

verse bass:

G:-----------------------------------------|

D:-----------------------------------------|

A:0-0-0-0-----------3-3-3-3-3-3-3-3--------| x4

E:----------2-2-2-2------------------------|

verse guitar:

e:----------------------------|

B:----------------------------|

G:-----5----------------------|

D:2----5----5-----------------| x4

A:2----3----5-----------------|

E:0----------3----------------|

intro bass:

G:9-9-9-9-11-9-9-9-9-11-11----------|

D:9-9-9-9-11-9-9-9-9-11-11----------| x8

A:----------------------------------|

E:----------------------------------|

intro guitar:

e:-----------------------------|

B:-----------------------------|

G:-----5-----------------------| x8

D:2----5----5------------------|

A:2----3----5------------------|

E:0----------3-----------------|

END! Thank you and if you find out how to do the solo thing please email.

My email is I_hate_punk_rock_42@hotmail.com. Thanks, any comments or

suggestions please email, or if you want to talk instant message me at

XxJimiPagexX, just tell me that you got my screen name off www.ultimate-guitar.com!

Dont be afraid to confront me. Please tell me if you find the solo thing out. Peace Out!

Get this song at:  amazon.com sheetmusicplus.com

Share your thoughts

0 Comments found