Face to Face

Face to Face - Dissension guitar tab

-------------------------------------------------------------------------------

DISSENSION - Face to Face

-------------------------------------------------------------------------------

By:cool clown (cool_clown@hotmail.com)

e|-----------------------------------------------------------------------------------|

B|-----------------------------------------------------------------------------------|

G|----5555555---------5555555---------5555555-12121212-1111-12-11-5555555-77777777---|

D|-5--5555555-5555555-5555555-5555555-5555555-12121212-1111-12-11-5555555-77777777---|

A|-5--3333333-5555555-3333333-5555555-3333333-10101010-9-9--10-9--3333333-55555555---|

E|-3----------3333333---------3333333------------------------------------------------|

e|----------------------------------------------------------------------------------|

B|----------------------------------------------------------------------------------|

G|---5555555---------5555555---------5555555-12121212-1111-12-11-5555555-77777777---|

D|---5555555-5555555-5555555-5555555-5555555-12121212-1111-12-11-5555555-77777777---|

A|---3333333-5555555-3333333-5555555-3333333-10101010-9-9--10-9--3333333-55555555---|

E|-----------3333333---------3333333------------------------------------------------|

e|-------------------------------------------------------------------------|

B|-------------------------------------------------------------------------|

G|-99999999-5-----------7777777---999999999-5-----------7777777------------|

D|-99999999-5---5555555-7777777---999999999-5---5555555-7777777------------|

A|-77777777-3---5555555-5555555---777777777-3---5555555-5555555------------|

E|--------------3333333-------------------------3333333--------------------|

e|--------------------------------------------------------------------------------------------|

B|--------------------------------------------------------------------------------------------|

G|-5-5-5-5-5----------5-5-5-5-5----------5-5-5-5-5--12121212-111111-1212-11-55555555-7777777--|

D|-5-5-5-5-5--5555555-5-5-5-5-5--5555555-5-5-5-5-5--12121212-111111-1212-11-55555555-7777777--|

A|-3-3-3-3-3--5555555-3-3-3-3-3--5555555-3-3-3-3-3--10101010-9-9-9--1010-9--33333333-5555555--|

E|------------3333333------------3333333------------------------------------------------------|

e|--------------------------------------------------------------------------------------|

B|--------------------------------------------------------------------------------------|

G|---5555555---------5555555---------5555555-12121212-111111-1212-11-5555555-77777777---|

D|---5555555-5555555-5555555-5555555-5555555-12121212-111111-1212-11-5555555-77777777---|

A|---3333333-5555555-3333333-5555555-3333333-10101010-9-9-9--1010-9--3333333-55555555---|

E|-----------3333333---------3333333----------------------------------------------------|

e|-------------------------------------------------------------------------|

B|-------------------------------------------------------------------------|

G|-99999999-5-----------7777777---999999999-5-----------7777777------------|

D|-99999999-5---5555555-7777777---999999999-5---5555555-7777777------------|

A|-77777777-3---5555555-5555555---777777777-3---5555555-5555555------------|

E|--------------3333333-------------------------3333333--------------------|

e|------------------------------------------------------------------------------------|

B|------------------------------------------------------------------------------------|

G|-5---5---5xxxx-------5xxxx-------5xxxx--12121212-111111-1212-11-5555555-77777777----|

D|-5-5-5-5-5xxxx-5xxxx-5xxxx-5xxxx-5xxxx--12121212-111111-1212-11-5555555-77777777----|

A|-3-5-3-5-3xxxx-5xxxx-3xxxx-5xxxx-3xxxx--10101010-9-9-9--1010-9--3333333-55555555----|

E|---3---3-------3xxxx-------3xxxx----------------------------------------------------|

e|---------------------------------------------------------------------------|

B|---------------------------------------------------------------------------|

G|-99999999-5555555----------7777777---999999999-5555555----------7777777----|

D|-99999999-5555555--5555555-7777777---999999999-5555555--5555555-7777777----|

A|-77777777-3333333--5555555-5555555---777777777-3333333--5555555-5555555----|

E|-------------------3333333------------------------------3333333------------|

e|-------------------------------------------------------------------------------|

B|-------------------------------------------------------------------------------|

G|-5555555---------5555555---------55555555-12-11-9-7-5-7-5555555-7777777--------|

D|-5555555-5555555-5555555-5555555-55555555-12-11-9-7-5-7-5555555-7777777--5-----|

A|-3333333-5555555-3333333-5555555-33333333-10-9--7-5-3-5-3333333-5555555--5-----|

E|---------3333333---------3333333-----------------------------------------3-----|

If there's any mistakes please e-mail me

===============================================================================

Get this song at:  amazon.com sheetmusicplus.com

Share your thoughts

0 Comments found