Face to Face

Face to Face - Disconnected guitar tab

I figured since I have been a member for almost three months and posted nothing it was about time I did. Anyway,I noticed that the coolest face to face song has not been provided by anyone.so I might as well handle it. So here it is Disconnected. Which hopefully doesn't happen while I am tabbing this.

standard E tune part 2

half notes first

E-----------[------[---------[----------[---------[-----------------------------------

B-------------------------------------------------[-----------------------------------

G-------------------------------------------------[-----------------------------------

D------9-------------9---9--7--6------------------[-9-x-9-x-9-------------------------

A------7--9--6--4----7-----------9--7--6----------[-7-x-7-x-7--9-x-9-x-9--6-x-6-x-6---

E---------7--4--2-------------------------9--7--9-[-0----------7-x-7-x-7--4-x-4-x-4---

eighth notes

E--------------]---------------------------------------------------------------------]

B-----------------------------------------------------------------------------------*]

G--------------]---9-9-9-9-9-9-9-----------------------------------------------------]

D------------------9-9-9-9-9-9-9-x-9-9-9-9-9-9-9-x-----------------4-4-4-4-4-4-4-x---]

A---4-x-4-x-4------7-7-7-7-7-7-7-x-9-9-9-9-9-9-9-x-6-6-6-6-6-6-6-x-4-4-4-4-4-4-4-x--*]

E---2-x-2-x-2--]-----------------x-7-7-7-7-7-7-7-x-4-4-4-4-4-4-4-x-2-2-2-2-2-2-2-x---]

part 3

E----------------------------------------------------------------------](repeat 1x then

B----------------------------------------------------------------------]go into lyrics)

G----------------------------------------------------------------------]

D--------9-------9-------9-------9-------9--------9-------9-9-8--------]

A---9-9--7--9-9--7--9-9--7--9-9--7--9-9--7--9--9--7--9-9--7-7-6-9-11---]

E---7-7-----7-7-----7-7-----7-7-----7-7-----7--7-----7-7--------7-9----]

1st verse

Lyrics: You don't know one thing about me, Chorus:whoaa, you don't know what you will

is there something that you should know? give them, whoaa, you don't know what you

I can tell you what you want to hear, will give them, you don't know what you

Let your inhibitions just go..,go want, it may take you years to find out

you don't know what you need its something

that may never come to you.

2nd verse

Lyrics: Trust is something that comes easy, when you've never been a victim, lies and promises and words are said, but your dicision to accept them. (Chorus)

interlude/solo--------------------------------------------------------------------------

-----------------------------------------------------------------------------------------

-----------------------------------------------------------------------------------------

-----------x-x--x--9-9-9-9-9-9-9--11-11-11-11-11-11-11-13-13-13-13-13-13-13-16-16-16-11-9

-----------x-x--x--7-7-7-7-7-7-7--9--9--9--9--9--9--9--11-11-11-11-11-11-11-14-14-14-9--7

-----------x-x--x------------------------------------------------------------------------

repeats 2x into------------------------------------------------------------------------

-----------------------------------------------------------------------------

------------------------------------------------------------------------------

--------------16-16-16--------16-16-16----------slide------------------------------

--------------14-14-14-16-14--14-14-14-16-14---14\\16\\14\\16\\16\\14--19p-18p-16p-19-18-16

-----------------------14-12-----------14-12---12\\14\\12\\14\\14\\12---------------to chorus

the rest is pretty self explainitory, the chorus is the same as the second part of the intro, and the verse is part 3 repeated, the interlude/solo I am not sure on but it sounds fine. Any questions E-mail me. Iconoclastfrag12@aol.com

Get this song at:  amazon.com sheetmusicplus.com

Share your thoughts

0 Comments found