Face to Face

Face to Face - Disappointed guitar tab

Intro

e|---------------------------------------------------------------------------|

B|---------------------------------------------------------------------------|

G|-xx-4--xx-4-----6--4-----6--4-----6--4-----6--4-----999999-----------------|

D|-xx-4--xx-4-5-7-6--4-5-7-6--4-5-7-6--4-5-7-6--4-5-7-999999-----------------|

A|-xx-2--xx-2-5-7-4--2-5-7-4--2-5-7-4--2-5-7-4--2-5-7-777777-----------------|

E|------------3-5------3-5------3-5------3-5------3-5------------------------|

Pre-chorus

e|---------------------------------------------------------------------------|

B|---------------------------------------------------------------------------|

G|---------------------------------------------------------------------------|

D|-5555555555-7777777777-555555555-444444-777777-----------------------------|

A|-5555555555-7777777777-555555555-444444-777777-----------------------------|

E|-3333333333-5555555555-333333333-222222-555555-----------------------------|

chorus

e|-------------------------------------------------------------------------------------------|

B|-------------------------------------------------------------------------------------------|

G|-77777777-----------------------------77777777-----------------------------121212121212----|

D|-77777777-77777777-44444444-55555555--77777777-77777777-44444444-55555555--x-x-x-x-x-x-----|

A|-55555555-77777777-44444444-55555555--55555555-77777777-44444444-55555555--101010101010----|

E|----------55555555-22222222-33333333-----------55555555-22222222-33333333------------------|

After repeat the intro, pre-chorus and the chorus

Bridge

e|------------------------------------------------------------------------------|

B|------------------------------------------------------------------------------|

G|--4-----6--4-----6--4xxxx-------------6xxx--4xxxx-------------9999999999------|

D|--4-5-7-6--4-5-7-6--4xxxx-5xxxx-7xxxx-6xxx--4xxxx-5xxxx-7xxxx-9999999999------|

A|--2-5-7-4--2-5-7-4--2xxxx-5xxxx-7xxxx-4xxx--2xxxx-5xxxx-7xxxx-7777777777------|

E|----3-5------3-5----------3xxxx-5xxxx-------------3xxxx-5xxxx-----------------|

e|---------------------------------------------------------------------------|

B|---------------------------------------------------------------------------|

G|---------------------------------------------------------------------------|

D|-77777777-44444444-55555555555--77777777-44444444-55555555555--------------|

A|-77777777-44444444-55555555555--77777777-44444444-55555555555--------------|

E|-55555555-22222222-33333333333--55555555-22222222-33333333333--------------|

e|-------------------------------------------------------------------------------|

B|-------------------------------------------------------------------------------|

G|----------------------------------------------------99999----------------------|

D|-77777777-44444444-55555555555--777777777777-55555--99999----------------------|

A|-77777777-44444444-55555555555--777777777777-55555--77777----------------------|

E|-55555555-22222222-33333333333--555555555555-33333-----------------------------|

chorus

e|---------------------------------------------------------------------------|

B|---------------------------------------------------------------------------|

G|-77777777-----------------------------77777777-----------------------------|

D|-77777777-77777777-44444444-55555555--77777777-77777777-44444444-55555555--|

A|-55555555-77777777-44444444-55555555--55555555-77777777-44444444-55555555--|

E|----------55555555-22222222-33333333-----------55555555-22222222-33333333--|

prnstr4lf13

Get this song at:  amazon.com sheetmusicplus.com

Share your thoughts

0 Comments found