Face to Face

Face to Face - Disapointed bass tab

6X

G|--------11-----9---7-----9-----7-------9-----7---6-----7-----9--|

D|--9-9-9----9-9---9---9-9---9-9---9-9-9---9-9---9---9-9---9-9----|

A|----------------------------------------------------------------|

E|----------------------------------------------------------------|

1X

G|-----------------|

D|-----------------|

A|----------2>--4>-|

E|--3>--5>---------|

1X

G|-----------------|

D|---------4>------|

A|--5>-------------|

E|-----5>------3>--|

1X

G|--------------------------|

D|-------------------5>-----|

A|--5>-4p5-5p7--------------|

E|-------------5>--2>---3>--|

4X

G|--------11-----9---7-----9-----7-------9-----7---6-----7-----9--|

D|--9-9-9----9-9---9---9-9---9-9---9-9-9---9-9---9---9-9---9-9----|

A|----------------------------------------------------------------|

E|----------------------------------------------------------------|

1X

G|-----------------|

D|-----------------|

A|----------2>--4>-|

E|--3>--5>---------|

1X

G|-----------------|

D|---------4>------|

A|--5>-------------|

E|-----5>------3>--|

1X

G|--------------------------|

D|-------------------5>-----|

A|--5>-4p5-5p7--------------|

E|-------------5>--2>---3>--|

3X

G|--------11-----9---7-----9-----7-------9-----7---6-----7-----9--|

D|--9-9-9----9-9---9---9-9---9-9---9-9-9---9-9---9---9-9---9-9----|

A|----------------------------------------------------------------|

E|----------------------------------------------------------------|

1X

G|--------11-----9---7-----9-----7-------9-----7---6-----7-----9-----7-----6--|

D|--9-9-9----9-9---9---9-9---9-9---9-9-9---9-9---9---9-9---9-9---9-9---9-9----|

A|----------------------------------------------------------------------------|

E|----------------------------------------------------------------------------|

1X

G|--------------|

D|--------------|

A|--------------|

E|--5>--7>--3>--|

1X

G|---------------------------|

D|---------------------------|

A|----------10>-9-9-7-7-5-5--|

E|--5>--7>-------------------|

1X

G|-------------------------|

D|-------------------------|

A|-------------------------|

E|--5>--7>--3>--0>--3>--3--|

1X

G|-----------------------------------|

D|-----------------5-5-4-4-----------|

A|--5>----------------------7-7-5-5--|

E|-----5>--2>--3>--------------------|

1X

G|--------------------------|

D|--------------------------|

A|--5>-4p5-5p7--------------|

E|-------------5>--2>--3>---|

1X

G|-------------------------------------------------|

D|-----------------7>/11----------5-5-4-4----------|

A|--5>-4p5-5p7----------------------------7-7-5-5--|

E|--------------5>---------2>--3>-------------------|

1X

G|-----------------|

D|-----------------|

A|--5>-------------|

E|-----5>--2>--3>--|

1X

G|--------11-----9---7-----9-----7-------9-----7---6-----7-----9--|

D|--9-9-9----9-9---9---9-9---9-9---9-9-9---9-9---9---9-9---9-9----|

A|----------------------------------------------------------------|

E|----------------------------------------------------------------|

Face To Face Disapointed please rate and help me build the face to face collection!

Taken from The BassMasta -- http://www.tabs-database.com

Get this song at:  amazon.com sheetmusicplus.com

Share your thoughts

0 Comments found