Face to Face

Face to Face - Chesterfield King guitar tab

-------------------------------------------------------------------------------

CHESTERFIELD KING - Face To Face

-------------------------------------------------------------------------------

Transcribed by Me

[Chord Notation]

e-|-----------------------------|

B-|-----------------------------|

G-|-------4--5--2--7----------9-|

D-|-5--2--4--5--2--7-----5----9-|

A-|-5--2--2--3--0--5--5--2----7-|

E-|-3--0--------------2---------|

G E B C A D F# Bii E(high)

[Chesterfield King]

[Riff 1]

e-|---------------------|---------------------|

B-|---------------------|---------------------| x2

G-|-----------5-x-x-5-5-|-----------7-x-x-7-7-|

D-|-5--5-5-5--5-x-x-5-5-|-5--5-5-5--7-x-x-7-7-|

A-|-5--5-5-5--3-x-x-3-3-|-5--5-5-5--5-x-x-5-5-|

E-|-3--3-3-3------------|-3--3-3-3------------|

[Verse]

G E B(pm) C(pm)

We stood in your room and laughed out loud.

G E A C xxG

Suddenly the laughter died and we were caught in an eye to eye.

E B(pm) C(pm)

We sat on the floor and did we sit close.

G E

I could smell your thoughts and thought.

A C xxG

Do you want to touch a lot like me?

C G

Too scared to say a thing.

[Pre-Chorus]

B(pm) C(pm)

I left your house and kicked myself.

E(high)(pm) D(pm) Riff A

I put those feelings on a shelf to die.

B(pm) C(pm) E(high)(pm) D(pm) Riff A

I guess I'm not a gambling type but think of what the two of us had lost.

Riff A

Had lost.

[Verse]

G E B(pm) C(pm)

I needed some time to think it out.

G E

7-Eleven parking lot.

A C xxG

A toothless woman turned and stopped.

E B(pm) C(pm) I gave her a dime and a Chesterfield.

G E

She leaned down and kissed my cheek.

A C xxG

I was scared but it felt sweet.

C G

Felt so sweet.

[Pre-Chorus]

B(pm) C(pm)

She asked me if I had a name.

E(high)(pm) D(pm) Riff A

I told her I was glued up on some chick.

B(pm) C(pm)

We sat and smoked against the wall.

E(high)(pm) D(pm) Riff A

Drank a beer, felt the chill of fall.

Riff A

Of fall.

[Chorus]

G F# E D C

I took my car and drove it down the hill by your house.

Bii A

I drove so fast.

G F# E D C Bii A

The wind it couldn't cool me down, so I turned it around and came back up.

G F# E D C

You were waiting on your step, steam showing off your breath and

Bii A

water in your eyes.

G F# E D C Bii

We pulled each other into one, parkas clinging on the lawn and kissed

D

right there.

[Riff 1]

[Solo]

e-|--------------|--------------|----------------------|------------------|

B-|--------------|--------------|----------------------|------------------|

G-|--------------|--------------|----------------------|------------------|

D-|--------------|--------------|----------------------|------------------|

A-|-10--10-10-10-|-10--10-10-10-|-10^12^10\8--8^10^8\7-|-7^8^7\5--5^7^5\3-|

E-|--------------|--------------|----------------------|------------------|

e-|--------------|--------------|-------|-------------|

B-|--------------|--------------|-------|-------------|

G-|--------------|--------------|-------|-5-5-5-5-5-5-|

D-|--------------|--------------|-------|-------------|

A-|-10--10-10-10-|-10--10-10-10-|-7--7--|-3-3-3-3-3-3-|

E-|--------------|--------------|-------|-------------|

e-|--------------|--------------|----------------------|------------------|

B-|--------------|--------------|----------------------|------------------|

G-|--------------|--------------|----------------------|------------------|

D-|--------------|--------------|----------------------|------------------|

A-|-10--10-10-10-|-10--10-10-10-|-10^12^10\8--8^10^8\7-|-7^8^7\5--5^7^5\3-|

E-|--------------|--------------|----------------------|------------------|

e-|--------------|--------------|-------|-------------------|----|

B-|--------------|--------------|-------|-------------------|----|

G-|--------------|--------------|-------|-17-17-17-17-17-17-|-16-|

D-|--------------|--------------|-------|-------------------|----|

A-|-10--10-10-10-|-10--10-10-10-|-7--7--|-15-15-15-15-15-15-|-14-|

E-|--------------|--------------|-------|-------------------|----|

[Pre-Chorus]

B(pm) C(pm) E(high)

Said all my chicks they smoke these things and handed you a

D(pm) Riff A

Chesterfield King.

B(pm) C(pm) E(high)(pm) D(pm) Riff A

Held your hand and watched tv and traced the little lines along your palm.

Riff A

Your palm.

[Chorus]

G F# E D C

I took my car and drove it down the hill by your house.

Bii A

I drove so fast.

G F# E D C Bii A

The wind it couldn't cool me down, so I turned it around and came back up.

G F# E D C

You were waiting on your step, steam showing off your breath and

Bii A

water in your eyes.

G F# E D C Bii

We pulled each other into one, parkas clinging on the lawn and kissed

D

right there.

G F# E D

Right Th-e-e-r-e

C Bii A

Right Th-e-r-e

[Outro]

e-|-----------------------------------|------------------------|

B-|-----------------------------------|------------------------|

G-|-12-12-12-12-12--------------------|-9-9-9-9-9--7-7-7-7-7-7-|

D-|-12-12-12-12-12--12-12-12-12-12-12-|-9-9-9-9-9--7-7-7-7-7-7-|

A-|-10-10-10-10-10---9--9--9--9--9--9-|-7-7-7-7-7--5-5-5-5-5-5-|

E-|-----------------------------------|------------------------|

Pm......... ........ .. ....... ..... ..

e-|------------------------|-----------------|--3-|

B-|------------------------|-----------------|--3-|

G-|-5-5-5-5-5--------------|-2---2--2-2-2--2-|--4-|

D-|-5-5-5-5-5--5-5-5-5-5-5-|-2---2--2-2-2--2-|--5-|

A-|-3-3-3-3-3--2-2-2-2-2-2-|-0---0--0-0-0--0-|--5-|

E-|------------------------|-----------------|--3-|

[Riff A]

e-|-----------|-----------|

B-|-----------|-----------|

G-|-----------|-----------|

D-|-----------|-----------|

A-|-3-3-3^2^0-|-0-3-3-3-3-|

E-|-----------|-----------|

-------------------------------------------------------------------------------

Get this song at:  amazon.com sheetmusicplus.com

Share your thoughts

0 Comments found