Face to Face

Face to Face - Blister In The Sun guitar tab

BLISTER IN THE SUN - FACE TO FACE

Tabbed by: Bill

Email: Rocksboy@aol.com

Tuning: standard tuning EADGBE

Intro: G C G C G C G

e|-----------------------------------------------------------------------------|

B|-----------------------------------------------------------------------------|

G|-----------------------------------------------------------------------------|

D|-----------------------------------------------------------------------------|

A|--------2----------3-2----------2--------3-2----------2---3-2---0------------|

E|----3-------3--------------3--------3------------3--------------------3------|

Chorus: Em x8 C x8 Em x8 C x4 D x4

e|------------0--------0--------0--------0----------2---------------------------|

B|------------0--------1--------0--------1----------3---------------------------|

G|------------0--------0--------0--------0----------2---------------------------|

D|------------2--------2--------2--------2----------0---------------------------|

A|------------2--------3--------2--------3----------0---------------------------|

E|------------0--------0--------0--------0----------0---------------------------|

| / slide up

| slide down

| h hammer-on

| p pull-off

| ~ vibrato

| + harmonic

| x Mute note

===============================================================================

Get this song at:  amazon.com sheetmusicplus.com

Share your thoughts

0 Comments found