Face to Face

Face to Face - Bill of Goods guitar tab

By Paul:

pludwig26@hotmail.com

Verse:

E---------------------------------|

B---------------------------------|

G--7777---------------------------|

D--7777--5555--7777--5555---------| x4

A--5555--5555--7777--5555---------|

E--------3333--5555--3333---------|

Pre-Chorus:

E-------------------------------------------|

B-------------------------------------------|

G--4444--------4444--------4444-------------|

D--4444--5555--4444--5555--4444--5555--7777-|

A--2222--5555--2222--5555--2222--5555--7777-|

E--------3333--------3333--------3333--5555-|

Chorus:

E---------------------------------------------------------|

B---------------------------------------------------------|

G--7777--------------7777--7777--------------7777---------|

D--7777--4444--5555--7777--7777--4444--5555--7777--7------|

A--5555--4444--5555--5555--5555--4444--5555--5555--7------|

E--------2222--3333--------------2222--3333--------5------|

Verse x2

Pre-Chorus

Chorus

Solo:

E---------------------------------------------------------------|

B---------------------------------------------------------------|

G--14-14-14-14-14-11-11-11-11-11-12-12-12-12-12-9-9-9-9-9-------|

D--0--0--0--0--0--0--0--0--0--0--0--0--0--0--0--0-0-0-0-0-------| x2

A---------------------------------------------------------------|

E---------------------------------------------------------------|

con't

E---------------------------| E-------------------------|

B---------------------------| B-------------------------|

G--7-7-7-7-7-6-6-7-7-9------| G-------------------------|

D--0-0-0-0-0-0-0-0-0-0------| x3 D---777777777777777777----|

A---------------------------| A---777777777777777777----|

E---------------------------| E---555555555555555555----|

Chorus x2

Verse x4

Outro:

E--------------------------|

B--------------------------|

G--7777--------------7-----|

D--7777--4444--5555--7-----|

A--5555--4444--5555--5-----|

E--------2222--3333--------|

======================================================================

Get this song at:  amazon.com sheetmusicplus.com

Share your thoughts

0 Comments found