Face to Face

Face to Face - AOK (Live) guitar tab

-------------------------------------------------------------------------------

A.O.K.(LIVE) - Face To Face

-------------------------------------------------------------------------------

By:lbcdank@aol.com

intro:

e|---------------------------------------------------------------------------|

B|---------------------------------------------------------------------------|

G|------------10---5----------10---5-----------------------------------------|

D|--5---------10---5-- 5--5---10---5--55-5-5----5---5---/pick slide----------|

A|--5----------8---3---5--5----8---3--55-5--5---5---5------------------------|

E|--3------------------3--3-----------33-3--3---3---3------------------------|

riff h20 x2:

e|---------------------------------------------------------------------------|

B|------------------------------------------8-------------8------------------|

G|---------------------------------------------------------------------------|

D|----10-10------10------10-10------10---10---10---10------10---10-----------|

A|--8-------8-8-----8-8---------8-8----8---------8----8-8-----8----8---------|

E|---------------------------------------------------------------------------|

verse:(x2)

e|---------------------------------------------------------------------------|

B|---------------------------------------------------------------------------|

G|----101010-----5-5-5------5---------------5--------------------------------|

D|----101010-----5-5-5---5--5--5-5-5-5---5--5--5-5-5-5-----------------------|

A|-----8 8-8-----3-3-3---5--3--5-5-5-5---5--3--5-5-5-5-----------------------|

E|-----------------------3-----3-3-3-3---3---- 3-3-3-3-----------------------|

riff h20

verse:

Riff h20: same but end w/ this

e|----------------------------------------------------------------------------|

B|-------8--------------------------------------------------------------------|

G|----------------------------------------------------------------------------|

D|----10---10----10-----------------------------------------------------------|

A|-------------8----8-------3--2-3-2------------------------------------------|

E|---------------------------3------3-1---------------------------------------|

bridge:x4

e|----------------------------------------------------------------------------|

B|----------------------------------------------------------------------------|

G|------------------5555555---------------------------------------------------|

D|--3333333-5555555-5555555-3333333-------------------------------------------|

A|--3333333-5555555-3333333-3333333-------------------------------------------|

E|--1111111-3333333---------1111111-------------------------------------------|

second guitar plays this after second time through riff

e|----------------------------------------------------------------------------|

B|-------------------------------------------end-on---------------------------|

G|--12-12-12-12-12-10-10------------------------------------------------------|

D|-----------------------------------(x2)-------3-----------------------------|

A|--10-10-10-10-10--8--8------------------------3-----------------------------|

E|----------------------------------------------1-----------------------------|

e|----------------------------------------------------------------------------|

B|------------------------------(x2)------------------------------------------|

G|------------5---------------------------------------------------------------|

D|---3---5---5---2/3-2--------------------------------------------------------|

A|---3---5---3-----------3----------------------------------------------------|

E|---1---3------------------1-------------------------------------------------|

bridge riff: only this time 2nd guitar plays this

e|(x2)------------------------------------------------------------------------|

B|----------------------------------------------------------------------------|

G|-1212121010101010101010-10 9--5-5-/7-5--------------------------------------|

D|-------------------------------------------333--333--333--333------5555555--|

A|-101010-8-8-8-8-8-8-8-8-8- 7--3-3-/5-3-----333--333--333--333------5555555--|

E|-------------------------------palm-muted:-111--111--111--111------3333333--|

BRIdge riff:end on 3

3

1

===============================================================================

Get this song at:  amazon.com sheetmusicplus.com

Share your thoughts

0 Comments found