Face to Face

Face to Face - A Wolf In Sheeps Clothing bass tab

A Wolf In Sheeps Clothing

Face to Face

album: How to Ruin Everything

tabbed by: BizzyC 41

intro

G-------7-7------9-9-----------------------------44-55-7

D-----55-5-----77-7-----55-44--------44-55-66-77--------

A-2222-----5555-----2222-----77-44-55-------------------

E-------------------------------------------------------

G-------7-7------9-9------------------------------------

D-----55-5-----77-7----55-44---------44-55-66-77-55-44--

A-2222-----5555----2222-----77-44-55------------------55

E-------------------------------------------------------

verse

G-------6-7-7------6-7-6---------------------------------

D-5-5555-5-5-4-4444-4-4-5-5555----------4-4444-4-5-4-4---

A---------------------------------------------------5-5-7

E------------------------------3333-5555-----------------

there is no........

G-----------

D-----------

A-22-2-2--0-

E---2-2-33-2

chorus

G-------7-7------9-9-----------------------------44-55-7

D-----55-5-----77-7-----55-44--------44-55-66-77--------

A-2222-----5555-----2222-----77-44-55-------------------

E-------------------------------------------------------

G-------7-7------9-9------------------------------------

D-----55-5-----77-7----55-44---------44-55-66-77-55-44--

A-2222-----5555----2222-----77-44-55------------------55

E-------------------------------------------------------

verse

G-------6-7-7------6-7-6---------------------------------

D-5-5555-5-5-4-4444-4-4-5-5555----------4-4444-4-5-4-4---

A---------------------------------------------------5-5-7

E------------------------------3333-5555-----------------

there is no........

G-----------

D-----------

A-22-2-2--0-

E---2-2-33-2

chorus

G-------7-7------9-9------------------------------44-55-7

D-----55-5-----77-7------55-44--------44-55-66-77--------

A-2222-----5555------2222-----77-44-55-------------------

E--------------------------------------------------------

G-------7-7------9-9------------------------------------

D-----55-5-----77-7----55-44---------44-55-66-77-55-44--

A-2222-----5555----2222-----77-44-55------------------55

E-------------------------------------------------------

break down

G--------

D--------

A--------

E-3-3-2-3

chorus

G-------7-7------9-9------------------------------44-55-7

D-----55-5-----77-7------55-44--------44-55-66-77--------

A-2222-----5555------2222-----77-44-55-------------------

E--------------------------------------------------------

G-------7-7------9-9------------------------------------

D-----55-5-----77-7----55-44---------44-55-66-77-55-44--

A-2222-----5555-----2222----77-44-55------------------55

E-------------------------------------------------------

Taken from The BassMasta -- http://www.tabs-database.com

Get this song at:  amazon.com sheetmusicplus.com

Share your thoughts

0 Comments found