Face to Face

Face to Face - A New Way guitar tab

By: john, fattirefury@hotmail.com

This is my first tab, no one has tabbed this song yet so i thought i might try.

Gimmie some feed back!!

Intro:

e|-------------------------------------------------------------------------|

B|-------------------------------------------------------------------------|

G|-----------------5-5-5--8-8----------------------------------------------|

D|--5-5-5--8-8-----5-5-5--8-8-----[6 Times]--------------------------------|

A|--5-5-5--8-8-----3-3-3--6-6----------------------------------------------|

E|--3-3-3--6-6-------------------------------------------------------------|

Riff:

e|-------------------------------------------------------------------------|

B|-------------------------------------------------------------------------|

G|------------------------------------------------10-----------------------|

D|-5----------------------------------------------10-----------------------|

A|-5------Let Ring-------------Pick slide to------8------------------------|

E|-3-----------------------------------------------------------------------|

Pre Chorus:

e|-------------------------------------------------------------------------|

B|-------------------------------------------------------------------------|

G|-8-----5------8----------------------------------------------------------|

D|-8-----5------8------5----8----------------------------------------------|

A|-6-----3------6------5----8----------------------------------------------|

E|---------------------3----6----------------------------------------------|

Chorus:

e|-------------------------------------------------------------------------|

B|-------------------------------------------------------------------------|

G|-8---5-------[5]---------------------------------------------------------|

D|-8---5----8--[5]--8------------------------------------------------------|

A|-6---3----8--[3]--8------------------------------------------------------|

E|----------6-------6------------------------------------------------------|

Solo:

e|-------------------------------------------------------------------------|

B|-------------------------------------------------------------------------|

G|---------------------------------Scrape the pick up and down on--X-------|

D|-{44}--5-3-5---5-3-5---3--1-3--0---------------------------------x-------|

A|-----------------------------------------------------------------X-------|

E|-------------------------------------------------------------------------|

e|----------------------------Sidwways scrape and pick slide (mix it around|

B|-----------------------------to the chord--------------------------------|

G|-------------------------------------------8-----------------------------|

D|-5-3-5---5-3-5---3--1-2--0-----------------8-----------------------------|

A|-------------------------------------------6-----------------------------|

E|-------------------------------------------------------------------------|

Exit:

e|-------------------------------------------------------------------------|

B|----8--------------------------------------------------------------------|

G|----x--------------------------------------------------------------------|

D|----10--------15--13--14--10---------------------------------------------|

A|-------------------------------------------------------------------------|

E|-------------------------------------------------------------------------|

Song Order:

[section] [times played]

Intro: 6

Riff: 1

Pre Chorus: 1

Chorus : 2

Intro: 2

Riff: 1

Pre Chorus: 1

Chorus: 2

Intro: 4

Solo: 1

Pre Chorus: 1

Chorus: 2

Intro: 4

Exit: 1

Get this song at:  amazon.com sheetmusicplus.com

Share your thoughts

0 Comments found