Face to Face

Face to Face - 14 Hours Bass guitar tab

Face to Face

14 Hours

How to ruin everything

intro/verse

G-------8-8------------------|

D-----66-6-77777777-99999999-|

A----------------------------|

E-7777-----------------------|

Chorus

G--------898-----|

D-----------11-9-|

A----------------|

E-999/000--------|

G--------898--------------------------|

D-----------11------------------------|

A-------------11----------------------|

E-999/000-----------------------------|

G-------------------------------------|

D-------------------------------------|

A-77777777-99999999-77777777-99999999-|

E-------------------------------------|

G-------------22-4-|

D--------22-44-----|

A---22-44----------|

E-22---------------|

intrelude

G------------------------------------|

D--------------2222--------2222-4444-|

A-22222222-4444----22222222----------|

E------------------------------------|

G-----------------|

D-----------------|

A-22222/7-22222/7-|

E-----------------|

solo

G-------8--8-|

D-----66-6---|

A------------|

E-7777-------|

Ending

E-999/0*

/= slide

*= let ringAdded by tabs-database.com and our distinguished partners

Get this song at:  amazon.com sheetmusicplus.com

Share your thoughts

0 Comments found