Face to Face

Face to Face - 1000 X guitar tab

-------------------------------------------------------------------------------

1000 X - face to face

-------------------------------------------------------------------------------

Moon Doggie - xianmc@ssimicro.com (hi): for example,

*NOTE: (hi) just means play E E(hi)

the chord an octave higher G|----- G|--9--

D|--2-- D|--9--

A|--2-- A|--7--

VERSE: E|--0-- E|-----

A

I've tried to ask the question

A D

Must be a million answers that just aren't there (1 2 3 4)

A A D

You try to find yourself I try to live my life I just don't care

e|-----------------------------------|

B|-----------------------------------|

G|-------------------7---------------|

D|---7-------6-------7---------------|

A|---7-------6-------5---------------|

E|---5-------4-----------------------|

VERSE:

A A D

Take a look at your life Tell me can you say you've done no wrong?

A A D

Ask your self the question Do you realize where you belong?

PRECHORUS:

D A E(hi)

I've been down, I've been out_________________

D A E(hi) G D

I've been there , I've been down________ yeah, I've been out

CHORUS:

A E(hi) G(hi)

I've been down this road a 1000 times Nothing ever looks the same

It seems there's something more I might never see

A E(hi) G(hi)

I've been down this road a 1000 times Nothing ever looks the same

G(hi) D

It seems there's something more that I might never see

e|---------------------------------------------|

B|---------------------------------------------|

G|-----------9--------12--------7-----7--6-4---|

D|--7--------9--------12--------7-----7--6-4---|

A|--7--------7--------10--------5-----5--4-2---|

E|--5------------------------------------------|

1000 times______

e|----------------------------------------------------------------|

B|----------------------------------------------------------------|

G|--7----------7-7-7--X-X-X--7--------------------9-------7-------|

D|--7----------7-7-7--X-X-X--7------------7-------9-------7-------|

A|--5----------5-5-5--X-X-X--5------------7-------7-------5-------|

E|----------------------------------------5-----------------------|

'Cause I've been down and I've been out______________________

D A E G(hi) D

Yeah, yeah I've been there, I've been down_____ and I've been out

CHORUS

-------------------------------------------------------------------------------

Get this song at:  amazon.com sheetmusicplus.com

Share your thoughts

0 Comments found