Eyetoeye

Eyetoeye - Kamikaze Ride bass tab

here is eyetoeye's kamikaze ride

eyetoeye is an excellent christian alt. rock band

play with the recording and you should be fine!

verse:

I know you know what's on my mind

I know you see  where  I am  blind

G|--------------------------------

D|------------------------------

A|---------3-----------1--------

E|---------------------------3----

I know you can't be blamed cause you tried

G|----------------------------------------

D|-----------------------------------1--

A|---------3--------1-------------------

E|----------------------------------------

That's why were on this kamikaze ride

G|-------------------------------------

D|--------------------------1-0---------

A|----------------------1--3-----3--------

E|--------------33333333----------------------

bridge

G|-------------------------------------------------

D|-------------------------------------------------

A|--3-3-1-1--333-1-1---------------------------------

E|---------------------3-3-1-1--333-1-1-------------------

G|-------------------------------------------------

D|---------------1-0---------------------------------

A|--3-3-1-1--333--------------------1-0--------------

E|---------------------3-3-1-1--333---------------------

solo

G|------3-3----555--------------------------------------

D|-----------------3-1----3-3---555----------------------

A|--3-3------------------------------3-1---------

E|---------------------3-3------------------------

any question comments correction or kicks in the pants

jon_marck@hotmail.com

Get this song at:  amazon.com sheetmusicplus.com

Share your thoughts

0 Comments found