Extreme

Extreme - When Im President Bass guitar tab

Tuned down 1/2 step (as usual)

98bpm

After verse 1 Play in unison with guitar

G|--------------|--------------|-------------|--------------|--------------|--------------|-------------|

D|-----------44-|-----------55-|----------44-|----------5555|----------44--|----------5---|----------4--|

A|0--3-4--034---|0--3-4--034---|0--3-4-034---|0--3-4-034----|0--3-4-034--34|0--3-4-034----|0--3-4-034---|

E|--------------|--------------|-------------|--------------|--------------|-----------3b-|-----------3b|

G|---------------|--------------|

D|-------4-4-42--|---------4-4/5|

A|0--3-4-------34|0-------------|

E|---------------|--------------|

Then 2nd Section of Verse 1

G|--------------|---------------|--------------|

D|--------------|---------------|---------4-4/5|

A|-----------44-|-----------55--|0-------------|

E|0--3-4--034---|0--3-4--034--34|--------------|

Verse 2 (No Bass or guitar)

Bridge Chorus

G|-------------|-------------|-------------|---------------|-------------|---------------|

D|-------------|-------------|-------------|---------------|----7------7-|-----------44--|

A|-------------|5------------|-------------|5--------------|-------------|0--3-4--034----|

E|3-0--00--0--0|--5--55--5--5|3-0--00--0--0|----55----2-3-4|5-----5-5----|---------------|

G|-------------|---------------|------------|---------------|----------------|------------------|

D|----7------7-|-----------44--|---7------7-|-----------44--|----------------|------------------|

A|-------------|0--3-4--034--34|------------|0--3-4--034--34|-----------567\\-|------------------|

E|-5----5-5----|---------------|5----5-5----|---------------|3---2---1-------|0-0--034-00--34-00|

G|----------------|--------------|--------------|--------------|--------------|

D|----------------|-----4-4/5-\\--|----4/5-55-567|------4-4/5---|----4/5-55-567|

A|----------------|0-------------|0-------------|0-------------|0-------------|

E|0-0--034-0------|--------------|--------------|--------------|--------------|

G|----------------|----------------------|

D|----------------|----------------------|

A|----------------|---------55---44-----0|

E|0-0-034-0-0-34-0|-0-0-034---34----34---|

In the third verse there is string scratching - I have seen Extreme live and

I know Pat does this

G|-------------|-------------|-------------|---------------|-------------|---------------|

D|-------------|-------------|-------------|---------------|----7------7-|-----------44--|

A|-------------|5------------|-------------|5--------------|-------------|0--3-4--034----|

E|3-0--00--0--0|--5--55--5--5|3-0--00--0--0|----55----2-3-4|5-----5-5----|---------------|

G|-------------|---------------|------------|---------------|----------------|------------------|

D|----7------7-|-----------44--|---7------7-|-----------44--|----------------|------------------|

A|-------------|0--3-4--034--34|------------|0--3-4--034--34|-----------567\\-|------------------|

E|-5----5-5----|---------------|5----5-5----|---------------|3---2---1-------|0-0--034-00--34-00|

G|------------------|

D|------------------|

A|------------------|

E|0-0--034-0--0/12\\0|

Guitar Solo

X2

G|------------------|--------2-4-42----|----------------|------2-2-4/6-42-4-2----|

D|*---------------2-|--3--4--------32--|----------------|-2-2-4-2------------4-2*|

A|*---0--2--3--4----|----------------42|-----0--2--3--4-|4-4--------------------*|

E|-2----------------|------------------|0--2------------|------------------------|

G|----------7--|---9-----11-----12-----14--1617-18/|------------------|

D|-------7/9-9/|/11-11/12--12/14--14/16--16--------|--------14-13--11-|

A|0-0-0--------|-----------------------------------|0-0-0-------------|

E|-------------|-----------------------------------|------------------|

G|9--7--6--444/24/6-6-|

D|--------------------|

A|--------------------|

E|--------------------|

Follow the Bridge and Chorus until end riff's until the lyics "I'll be your

heaven sent" - On this line play

G|---------------|----------------|-----------------|-----------------|---------------|----------------|

D|-----------55--|-----------567\\-|-----------------|-----------------|-----------4-4-|----------------|

A|0--3-4--034--34|----------------|-----------------|-----------------|0--3-4--034----|0--3-4--034-/12/|

E|---------------|3---2---1-------|0-0-034-00--34-00|0-0-034-00--34-00|---------------|----------------|

G|---------------|---------------|-------------|--------------|

D|-----------4-4-|---------------|----------44-|-----------55-|

A|0--3-4--034----|0--3-4---------|0--3-4-034---|0--3-4--034---|

E|---------------|-------3-3-3030|-------------|--------------|

Repeat the following to fade

G|---------------|-------------|------------|

D|---------------|-------------|------------|

A|---------------|-------------|5-----------|

E|---------slide/|3--00-0--0---|---55-5-----|

Pretty tough....Added by tabs-database.com and our distinguished partners

Get this song at:  amazon.com sheetmusicplus.com

Share your thoughts

0 Comments found