Extreme

Extreme - Rise guitar tab

Rise'n'Shine - (Extreme III)

----------------------------

Key: / = Slide up/down

^ = hammer/pull

Chords used in the song:

D D/F# Dmin#5 D#5 Cadd9 G G7 E7 A7 A7sus4

E --2-----2------1-----------0----3--1----0---0---0---

B --3-----3------3-----3-----3----3--0----0---2---3---

G --2-----2------3-----3-----0----0--0----1---0---0---

D --0-----0------0-----0-----2----0--0----0---2---2---

A --------0------------------3----2--2----2---0---0---

E --------2-----------------------3--3----0-----------

---

Intro. (steel string acoustic)

E --------------------------------------0-------0--------------------

B ----3-------3---------3-------3-----3-------3---------1---------1--

G --0---0---0---0-----0-------0-----2-------2---------0---------0----

D 3-------2---------0-------0-----------------------2---------0------

A ----------------3-------------------------------0-------0^2--------

E ------------------------3-------1-------0--------------------------

E --------0------------------------------------------------0-------0-

B --1-------1------------3-------3---------3-------3-----3-------3---

G ----0-------0--------0---0---0---0-----0-------0-----2-------2-----

D ------2--------0^2^3-------2---------0-------0---------------------

A --3--------------------------------3-------------------------------

E -------------------------------------------3-------1-------0-------

[Rhythm fig.1]

E -------------------------0---------------------------

B -------1--------1--1-------1-----1-----------1-------

G -----0--------0------0---------0---0---0-0^2-------0-

D ---2--------0----------2-------------2---------0^2---

A -0------0^2--------3---------------------------------

E -----------------------------------------------------

k

E ---------------------------------------------------------------0----------

B -------3-----3-----3-----3-----3-------------1---------1-1-------1--------

G ---0-----0-----0-----0-----0-----0---0-----0---------0-----0-------0------

D -3---3-----3-----3-----3-----3-----3-----2---------0---------2-------0^2^3

A ---------------------------------------0-------0^2-------3----------------

E --------------------------------------------------------------------------

Dawn breaks silence... of a fainted lullaby.

[Rhythm fig. 1]

Day breaks the eyelid... of a song sung in my eye

Chorus:

D D#5 D Cadd9 G7 C

Rise, rise'n shine, a new day is coming.

Rise, rise in time, for everything under the sun.

D D/F# G7 Cadd9

And when you see a south wind blow, forecasting, you will know

E7 G7

a hot day will be on the way (Foolish one)

D D/F# G7

You analyze the earth and the sky, I ask you why you

Cadd9 E7 G7

can't analyze the signs of the present time.

Instrumental break:

(Play twice)

E ----------9-------------------9------------------9------------

B -------10---10----------10------10------------10---10---------

G -----0---------0------0----0-------0--------0---------0-------

D --12-------------12------------------12--11-------------11----

A -----------------------------------------------------------(0)

E --------------------------------------------------------------

Dmaj7 Bmin Daug

E --9---9---9---9-----7--7--7--7---6--6--6--6--

B --10--10--10--10----7--7--7--7---7--7--7--7--

G --11--11--11--11----7--7--7--7---7--7--7--7--

D --12--12--12--12----9--9--9--9---8--8--8--8--

A ---------------------------------------------

E ---------------------------------------------

Dmaj7 Bmin/D Daug

E --2--2--2--2--2--2--2--2--2--2--0--0--

B --2--2--2--2--3--3--3--3--3--3--3--3--

G --2--2--2--2--4--4--4--4--3--3--3--3--

D --0--0--0--0--0--0--0--0--0--0--0--0--

A --------------------------------------

E --------------------------------------

Vanity, yes all is vanity

Dmaj7 Bmin/D Daug

E --2--2--2--2--2--2--2--2--2--2/-6--6-2/---6--2---2-2/--6-

B --2--2--2--2--3--3--3--3--3--3/-7--7-3/---7--3---3-3/--7-

G --2--2--2--2--4--4--4--4--3--3/-7--7-3/---7--3---3-3/--7-

D --0--0--0--0--0--0--0--0--0--0--0--0--0----0---0---0-0---0-

A -----------------------------------------------------------

E -----------------------------------------------------------

Vanity, yes all's futility

D G7

For one that dies, another's born.

D7 G7

Where laughter's heard, comforters mourn.

D A7 G D/F# E7 A7 A7sus4->A7

There's a time for everything.

(same chord progression over cello parts, then back to chorus)

Enjoy!

Get this song at:  amazon.com sheetmusicplus.com

Share your thoughts

0 Comments found