Extreme

Extreme - Rest In Peace guitar tab

Date: Tue, 26 Sep 2000 01:19:10 -0400

From: Cristian "'Sócrates'" Franco

Subject: e/extreme/rest_in_peace.tab

REST IN PEACE

EXTREME

Transcribed By Sócrates

socrates@dreamtheater.zzn.com

*******************************************************************

* *

*See the SOCRATES WORLD at http://www.geocities.com/socratesworld *

*and get a free mail at http://socratesworld.zzn.com *

* *

*******************************************************************

Hi GuItArMaNiAcS, I take some time to transcribe

this one, I hope all of you know this song, is a quite hard, complex,

mad, insane guitar rock & roll EXTREME song. I transcribed the song with

the rhythms, because there are to many parts that be too fast and I think

this way could be better to you.

There are to many parts that repeats the rhythms, so I indicate that

parts. See the tablature explanation and the rhyth, explanation first.

A note about the PM (palm mute), they're indicated below the tab.

Please any mistake or misunderstood thing, or just to say hello,

don't hesitate to write to me;) C-ya in the future.

Intro:

Play the 12's like harmonics or muffled strings.

____ _______ _____5_____

_____

4 | | |--| | |--| |--|--|--|--| |--| |

4 |^ ^| | | | | | | | | | | | | |^

|-12-------------|---------------------------------------------|

|--12------------|---------------------------------------------|

|---12-----------|-----------12~~~-----------------------------|

|----12----------|----12^14-------14-12----------------12-12---|

|------12-----2--|-(2)------------------14^12^10-12-14-------2-|

|-------12--0--|-(0)---------------------------------------0-|

____ ________ _____5_____ _____

| |--| | |--| |--|--|--|--| | |

^| | | | | | | | | | | | |^

|----------------------------------------------|

|----------------------------------------------|

|----------12~~~~------------------------------|

|----12^14-------14-12-------------------------|

|-(2)------------------14^12^10-12-14-10----2--|

|-(0)---------------------------------------0--|

____ ________ _____5_____ _____

| |--| |--|--|--| |--|--|--|--| |--| |

^| | | | | | | | | | | | | | |^

|----------------------------------------------|

|----------------------------------------------|

|----------12-12-------------------------------|

|----12^14-------14-12----------------12-12----|

|-(2)------------------14^12^10-12-14-------2--|

|-(0)---------------------------------------0--|

____ ________ ___ _____

| |--| |--|--|--| | | |--| |

^| | | | | | | | 1 | | | |^

|-----------------------------------12---------|

|-----------------------------------12---------|

|----------12-12-------14b-12------------------|

|----12^14-------14-12--------12-12------------|

|-(2)------------------------------------------|

|-(0)------------------------------------------|

______ ________ _____5_____ ________

| |--| | |--| |--|--|--|--| |--|--|--|

^| | | | | | | | | | | | | | |

|-(12)---------------------------------------------|

|-(12)---------------------------------------------|

|------------12~~~~---------------------------------|

|------12^14-------14-12----------------12-12-12-14-|

|------------------------14^12^10-12-14-------------|

|---------------------------------------------------|

sextuplets throughout

|-------------------------------------------------------------------------|

|----------------12----------14-12----12----------------------------------|

|-12----12-14-15----15-14-12-------15----15-14-15-14-13-12----------------|

|----14----------------------------------------------------14-12-14-12----|

|----------------------------------------------------------------------14-|

|-------------------------------------------------------------------------|

_____ ________ _____5_____ _____

| |--| |--|--|--| |--|--|--|--| |--| |

| | | | | | | | | | | | | | |^

|----------------------------------------------|

|----------------------------------------------|

|----------12-12-------------------------------|

|----12^14-------14-12----------------12-12----|

|-2--------------------14^12^10-12-14-------2--|

|-0-----------------------------------------0--|

____ ________ ___

| |--| |--|--|--| | | ^| |

^| | | | | | | |1 | |^

|---------------------------------||

|--------------------------15-----||

|----------12-12-------14b------2-||

|-----2^14-------14-12----------2-||

|-(2)---------------------------0-||

|-(0)-----------------------------||

Verse I (repeat 4 times):

______ ___ _ ___

|--|-|-| |-| | | | | |

^| | | | | | | | | | |^

|-----------------------------|

|-----------------------------|

|-(2)-2------2-2------------2-|

|-(2)-2------2-2----2-2-2---2-|

|-(0)-0------0-0----0-0-0---0-|

|-------3-3------3--3-3-3-----|

PM - - - - - -

The same rhythm

_________________________________

1.,2.,3. |

|--------------------------------||

|--------------------------------||

|-(2)-2-----2-2--------------2--*||

|-(2)-2-----2-2------4-5-6---2--*||

|-(0)-0-----0-0------4-5-6---0---||

|-------3-3-------3--2-3-4-------||

PM - - - - - -

____________________________

4. |

|---------------------------||

|---------------------------||

|-(2)-2-----2-2-------------||

|-(2)-2-----2-2------4-5-6--||

|-(0)-0-----0-0------4-5-6--||

|-------3-3-------3--2-3-4--||

PM - - - - -

Pre-Chorus I:

_ _ __ _

| | | | | | ^| | | |-|

| | | | | | |^ ^O.. | |

|-----------------------|---------------------|

|--5----5-----------5---|---------(5)---------|

|--6----6-----------6---|---------(6)----x-x--|

|--7----7---6--6----6---|---------(6)----x-x--|

|-----------6--6----4---|---------(4)----x-x--|

|----5----5-4--4--------|---------------------|

PM - - - -

_ _ __ __ _ _ _ __

| | | | | | ^| | | | ^| | |-| | | | | | | ^| |

| | | | | | |^ ^| | O^ | | | | | | | | |^

|----------------------|-----------------------|---------------------|

|-5----5-----------5---|-(5)-5-----------------|-5----5-----------5--|

|-6----6-----------6---|-(6)-6-------------x-x-|-6----6-----------6--|

|-7----7---6--6----6---|-(6)-6----------2--x-x-|-7----7---6--6----6--|

|----------6--6----4---|-(4)-4----------2--x-x-|----------6--6----4--|

|---5----5-4--4--------|----------------0------|---5----5-4--4-------|

PM - - - - -

- - -

__ ____ ___ _ _ _____ ___ _

| | ^| | | |-| | | | | | | |^| | | |--| |-| | | | ^| |

^| | | | | | |^ ^| | | | | | |^ ^| | | | | | | | |^

|--------------------------|----------------------|--------------------------|

|-(5)-5----------------5---|-(5)--5-5-5-5-5---5---|-(5)-5--4--5-4-5-4-5----6-|

|-(6)-6-----4--4--x-x--0---|-(0)--------------0---|-(0)--------------------0-|

|-(6)-------5--5--x-x--4---|-(4)--4-4-4-4-4---4---|-(4)-4--3--4-3-4-3-4----5-|

|-(4)-------2-----x-x--4---|-(4)--4-4-4-4-4---4---|-(4)-4--3--4-3-4-3-4----5-|

|----------------------2---|-(2)--2-2-2-2-2-------|------------------------3-|

___ _ _ _____ ___ _

| | | | | |^| | | |--| |-| | | | ^| |

^| | | | | | |^ ^| | | | | | | | |

|----------------------|---------------------------|

|-(6)--5-5-5-5-5---5---|-(5)-5--4--5-4-5-4-5----6--|

|-(0)--------------0---|-(0)--------------------0--|

|-(5)--4-4-4-4-4---4---|-(4)-4--3--4-3-4-3-4----5--|

|-(5)--4-4-4-4-4---4---|-(4)-4--3--4-3-4-3-4----5--|

|-(3)--2-2-2-2-2-------|------------------------3--|

___ _ _ __ ___

| | | | | |^| | | | | | | ^| | |

^| | | | | | |^ ^| | | | | ^| | |^

|----------------------|----------------------------||

|-(6)--5-5-5-5-5---5---|-(5)-------------------5--5-||

|-(0)--------------0---|-(0)-------------------2--4-||

|-(5)--4-4-4-4-4---4---|-(4)-4---4---4--4------2--2-||

|-(5)--4-4-4-4-4---4---|-(4)-4---4---4--4------0----||

|-(3)--2-2-2-2-2-------|-----2---2---2--2-----------||

Chorus I:

__ __ __ __

| | | | | | | |

^| | | | | | | |^ play the same rhythm

|--------------------------|------------------------|

|-(5)----5-----5--5-----2--|-(2)--5--2-----2-2----3-|

|-(4)----4-----4--4-----2--|-(2)-----2-----2-2----4-|

|-(2)-2--2--2--2--2--2--2--|-(2)-----2--2--2-2--2-2-|

|--------------------------|------------------------|

|--------------------------|------------------------|

PM - - - - - -

|-------------------------|-------------------------|

|-(3)----3-----2-3~----3~-|-(3)----3-----2-3-----5--|

|-(4)----4-----3-4~----4~-|-(4)----4-----3-4-----4--|

|-(2)-2--2--2--1-2~-2--2~-|-(2)-2--2--2--1-2--2--2--|

|-------------------------|-------------------------|

|-------------------------|-------------------------|

PM - - - - - -

|-------------------------|--------------------------|

|-(5)----5-----5--5----~~(2)-----2-----2-2-----3--|

|-(4)----4-----4--4-------|---------2-----2-2-----4--|

|-(2)-2--2--2--2--2--2----|------2--2--2--2-2--2--2--|

|-------------------------|--------------------------|

|-------------------------|--------------------------|

PM - - - - - -

__ ____ ___ __ _____

| | | | | | | | | | || ^| | | |

| | | | | | | |^1 | | | |. |^ ^O.. |^

|---------------10-------10b-|-(10)-------10~~------|----------3--|

|-(3)----3----------9--------|--------9---------2---|-(2)------3--|

|-(4)----4---/9-------9------|----------9-------2---|-(2)------4--|

|-(2)-2--2-------------------|------------------2---|-(2)------5--|

|----------------------------|------------------0---|-(0)------5--|

|----------------------------|---------------X-----|----------3--|

| | |

^O.. |^ ^O | [_]..

|-(3)----------|----------------|-5------------||

|-(3)-------7--|-(7)------------|-7------------||

|-(4)-------7--|-(7)------------|-7------------||

|-(5)-------7--|-(7)------------|-7------------||

|-(5)-------5--|-(5)------------|--------------||

|-(3)----------|----------------|--------------||

PM -

Verse II (repeat 4 times, i'ts the same as verse I):

______ ___ _ ___

|--|-|-| |-| | | | | |

^| | | | | | | | | | |^

|-----------------------------|

|-----------------------------|

|-(2)-2------2-2------------2-|

|-(2)-2------2-2----2-2-2---2-|

|-(0)-0------0-0----0-0-0---0-|

|-------3-3------3--3-3-3-----|

PM - - - - - -

The same rhythm

_________________________________

1.,2.,3. |

|--------------------------------||

|--------------------------------||

|-(2)-2-----2-2--------------2--*||

|-(2)-2-----2-2------4-5-6---2--*||

|-(0)-0-----0-0------4-5-6---0---||

|-------3-3-------3--2-3-4-------||

PM - - - - - -

____________________________

4. |

|---------------------------||

|---------------------------||

|-(2)-2-----2-2-------------||

|-(2)-2-----2-2------4-5-6--||

|-(0)-0-----0-0------4-5-6--||

|-------3-3-------3--2-3-4--||

PM - - - - -

Pre-Chorus II:

__ _

| | | ^| | | |-|

O | | |^ ^O.. | |

|-----------------------|---------------------|

|--5----------------5---|---------(5)---------|

|--6----------------6---|---------(6)----x-x--|

|--7--------6--6----6---|---------(6)----x-x--|

|--7--------6--6----4---|---------(4)----x-x--|

|--5--------4--4--------|---------------------|

PM - -

_ _ __ __ _ _ _ __

| | | | | | ^| | | | ^| | |-| | | | | | | ^| |

| | | | | | |^ ^| | O^ | | | | | | | | |^

|----------------------|-----------------------|---------------------|

|-5----5-----------5---|-(5)-5-----------------|-5----5-----------5--|

|-6----6-----------6---|-(6)-6-------------x-x-|-6----6-----------6--|

|-7----7---6--6----6---|-(6)-6----------2--x-x-|-7----7---6--6----6--|

|----------6--6----4---|-(4)-4----------2--x-x-|----------6--6----4--|

|---5----5-4--4--------|----------------0------|---5----5-4--4-------|

PM - - - - -

- - -

__ ____ ___ _ _ _____ ___ _

| | ^| | | |-| | | | | | | |^| | | |--| |-| | | | ^| |

^| | | | | | |^ ^| | | | | | |^ ^| | | | | | | | |^

|--------------------------|----------------------|--------------------------|

|-(5)-5----------------5---|-(5)--5-5-5-5-5---5---|-(5)-5--4--5-4-5-4-5----6-|

|-(6)-6-----4--4--x-x--0---|-(0)--------------0---|-(0)--------------------0-|

|-(6)-------5--5--x-x--4---|-(4)--4-4-4-4-4---4---|-(4)-4--3--4-3-4-3-4----5-|

|-(4)-------2-----x-x--4---|-(4)--4-4-4-4-4---4---|-(4)-4--3--4-3-4-3-4----5-|

|----------------------2---|-(2)--2-2-2-2-2-------|------------------------3-|

___ _ _ _____ ___ _3___ _3____

| | | | | |^| | | |--| |-| | |-|-| | |-|-| |

^| | | | | | |^ ^| | | | | | | | | | | | | |

|----------------------|-----------------------------------|

|-(6)--5-5-5-5-5---5---|-(5)-5--4--5-4-5-X-X-X-5-X-X-X--6--|

|-(0)--------------0---|-(0)----------------------------0--|

|-(5)--4-4-4-4-4---4---|-(4)-4--3--4-3-4-X-X-X-4-X-X-X--5--|

|-(5)--4-4-4-4-4---4---|-(4)-4--3--4-3-4-X-X-X-4-X-X-X--5--|

|-(3)--2-2-2-2-2-------|--------------------------------3--|

___ _ _ __ ___

| | | | | |^| | | | | | | ^| | |

^| | | | | | |^ ^| | | | | ^| | |^

|----------------------|----------------------------|

|-(6)--5-5-5-5-5---5---|-(5)-------------------5--5-|

|-(0)--------------0---|-(0)-------------------2--4-|

|-(5)--4-4-4-4-4---4---|-(4)-4---4---4--4------2--2-|

|-(5)--4-4-4-4-4---4---|-(4)-4---4---4--4------0----|

|-(3)--2-2-2-2-2-------|-----2---2---2--2-----------|

Chorus II:

__ __ __ __

| | | | | | | |

^| | | | | | | |^ play the same rhythm

|--------------------------|----------------------|

|-(5)----5-----5--5-----2--|-(2)-----2-----2-2----|

|-(4)----4-----4--4-----2--|-(2)-----2-----2-2----|

|-(2)-2--2--2--2--2--2--2--|-(2)--2--2--2--2-2--2-|

|--------------------------|----------------------|

|--------------------------|----------------------|

PM - - - - - -

__ __ _ __ __

| | | | | | ^| | | | | | | | |

^| | | | | | | | | | | | | |^

|-------------------------|----------------------------|

|-(3)----3-----2-3--------|-------------------------5--|

|-(4)----4-----3-4--------|---------------~~--4--|

|-(2)-2--2--2--1-2--------|----------------------2--|

|---------------------/7--|-----7----------------------|

|-------------------------|--------12

Get this song at:  amazon.com sheetmusicplus.com

Share your thoughts

0 Comments found