Extreme

Extreme - Play With Me - Solo guitar tab

Play With Me - Extreme

+-----------------------------------PLEASE NOTE---------------------------------+

+ This file is the author's own work and represents their interpretation of the +

+ song. You may only use this file for private study, scholarship, or research. +

+-------------------------------------------------------------------------------+

Hi! My name is Yosa and I live in Jakarta, Indonesia. I'm new in this, so if you have any

comments or info about this tab, just e-mail me at diputra_80@hotmail.com

I tabbed this song all by my self, so there might be some little "mistakes" for the perfectionist

guitar players... ENJOY!!!!

Legend :

* : pinched (artificial harmonic)

w/ : whammy bar

||-5--0--0--0--7--0--0--0--8--0--0--0-10--0--0--0--8--0--0--0--7--0--0--0--||

||-------------------------------------------------------------------------||

||-------------------------------------------------------------------------||

||-------------------------------------------------------------------------||

||-------------------------------------------------------------------------||

||-------------------------------------------------------------------------||

||-5--0--0--0--4--0--0--0--5--0--0--0--7--0--0--0--8--0--0--0--7--0--0--0--||

||-------------------------------------------------------------------------||

||-------------------------------------------------------------------------||

||-------------------------------------------------------------------------||

||-------------------------------------------------------------------------||

||-------------------------------------------------------------------------||

||-5--0--0--0--4--0--0--0--5--0--0--0--7--0--0--0--5--0--0--0-10--0--0--0--||

||-------------------------------------------------------------------------||

||-------------------------------------------------------------------------||

||-------------------------------------------------------------------------||

||-------------------------------------------------------------------------||

||-------------------------------------------------------------------------||

||-8--0--0--0--7--0--0--0--10--0--0--0--8--0--0--0--7--0--0--0--5--||

||-----------------------------------------------------------------||

||-----------------------------------------------------------------||

||-----------------------------------------------------------------||

||-----------------------------------------------------------------||

||-----------------------------------------------------------------||

||-5----------------4*--5*----||

||---5--5--5--6--5------------||

||----------------------------||

||----------------------------||

||----------------------------||

||----------------------------||

||-------------------------------------------------------------------------||

||-------------------9-----------------------------------9-----------------||

||-9-----9-10--9-10----10--9-10--9-----9-----9-10--9-10----10--9-10--9-----||

||---12----------------------------12----12----------------------------11--||

||-------------------------------------------------------------------------||

||-------------------------------------------------------------------------||

||-------------------9--------------------------9-----9-12--9-----9-----||

||---------10----10----10----10-------10----10----10----------10----10--||

||-9-----9-----9-----------9-----9--------9-----------------------------||

||---11----------------------------11-----------------------------------||

||----------------------------------------------------------------------||

||----------------------------------------------------------------------||

||---------------------10----------------------------------11----------------||

||------------12----12----12----12----------------12----12----12----12-------||

||-9-11----11----11----------11----11----11----11----11----------11----11----||

||------12----------------------------12----13----------------------------13-||

||---------------------------------------------------------------------------||

||---------------------------------------------------------------------------||

||---------------------------------------------------------------------------||

||---------------------------------------------------------------------------||

||-10*--9*--8*--7*--6*-----------14----------------14---------------------14-||

||----------------------12-14-15----15-14-12-14-15----15-14-12---12-14-15----||

||---------------------------------------------------------------------------||

||---------------------------------------------------------------------------||

||------------------------------------9-----------------9----------------9-||

||---------------------------------10----10---------10----10---------10----||

||---------------14--------------9-----------9----9-----------9----9-------||

||15-14-12-14-15----15-14-11--11---------------11---------------11---------||

||-------------------------------------------------------------------------||

||-------------------------------------------------------------------------||

||12--9-----------9-12--9--------------------------------------------||

||------10----10----------10-------------15----------------15--------||

||----------9-----------------9-------14----14----------14----14-----||

||---------------------------------16----------16----16----------16--||

||------------------------------17----------------17-----------------||

||-------------------------------------------------------------------||

||------------------------------------------------------16-------------||

||----------16----------------16---------------------17----17----------||

||-------16----16----------16----16---------------16----------16----16-||

||----16----------16----16----------16---------18----------------18----||

||-18----------------18---------------------19-------------------------||

||-------------------------------------0-19----------------------------||

||---16-19-16----16-------------------------------------------------||

||17----------17----17----17----------------------------------------||

||---------------------16----16-13-16-13----13----------------------||

||---------------------------------------14----14----14-------------||

||------------------------------------------------14----14-11-14-11-||

||------------------------------------------------------------------||

||--------------------||

||--------------------||

||--------------------||

||--------------------||

||---11------7--------||

||12----12-7---7--0w/-||

* i guarantee this tab works, if anyone has another type of tab, please mail me at diputra_80@hotmail.com

Get this song at:  amazon.com sheetmusicplus.com

Share your thoughts

0 Comments found