Extreme

Extreme - More Then Words guitar tab

"More than Words" by Extreme

Tap the guitar on 2 and 4 beats of each measure with all four fingers of

right hand

each two dashes counts for one eigth note

--3---3---3---3- | --3-----3-3----- | --0-----3------- | --0---2---3---3- |

--3---3---3---3- | --3-------3---1- | --1-------1---1- | --1---3---3---3- |

---------------- | ---------------- | ---------------- | ---------------- |

---------------- | ---------------- | ---------------- | --------0------- |

------2-------3- | ------3-3-3---0- | ------0-0-0---3- | ---------------- |

3--------------- | ---------------- | ---------------- | --------------3- |

^tap ^tap ^tap ^tap (get the idea?)

--3---3---3---3- | --3-----3-3----- | --0-----3------- | --0---2---3---3- |

--3---3---3---3- | --3-------3---1- | --1-------1---1- | --1---3-------3- |

---------------- | ---------------- | ---------------- | ---------------- |

---------------- | ---------------- | ---------------- | ---------------- |

------2-------3- | ------3-3-3---0- | ------0-0-0---3- | --------0------- |

---------------- | ---------------- | ---------------- | --------------3- |

chorus.....

--3---3---3----- | --3---3---3----- | 2---0---0-2----- | ----------2----- |

--3---3---3----- | --3---3---3----- | 3-------3-----0- | ----------3---1- |

---------------- | ---------------- | ---------------- | --------------0- |

---------------- | ---------------- | ---------------- | --------4-----2- |

------2--------- | ------2--------- | ---------------- | --2---2-------3- |

3-------------3- | --------------0- | 2-------2-----0- | ---------------- |

---------------- | ---------------- | ---------------- | --2-------2---3- |

--1-----1-1---1- | --1---1---1---1- | --1-----------3- | --3-------3---3- |

--0-----0-0---0- | --0---0---0---0- | --0-----------2- | ------2--------- |

--2------------- | --------------2- | ----2---------0- | ------0--------- |

--------3-3---3- | --3---3---3---0- | ----0-0-0-0----- | ---------------- |

---------------- | ---------------- | ---------------- | --------------3- |

--3---3---3----- | --3---3---3----- | 2---0---0-2----- | ----------2----- |

--3---3---3----- | --3---3---3----- | 3-------3-----0- | ----------3---1- |

---------------- | ---------------- | ---------------- | --------------0- |

---------------- | ---------------- | ---------------- | ---------------- |

------2--------- | ------2--------- | ---------------- | --2---2-4-----3- |

--------------3- | ---------------- | 2-------2-----0- | ---------------- |

---------------- | ---------------- | --------3------- | 2 (strum) |

--1-----1-1---1- | --1---1---1---1- | --1-----1-1----- | 1 |

--0-----0-0---0- | --0---0---0---0- | --0-----0-0----- | 2 |

---------------- | ---------------- | ---------------- | 0 |

--3-----3-3---3- | --3---3---2---0- | ------0-0-0----- | x |

---------------- | ---------------- | ---------------- | |

2 (strum) |

1 |

2 |

0 |

x |

x | end chorus

after first verse, play intro line up to the Am7 chord (end of sixth

measure)..do not play the last tab of the sixth measure either.. instead...

strum two chords as a lead in to the secon verse...

0 (strum) | 2 (strum) |

1 | 1 (strum) |

0 | 2 |

2 | 0 |

0 | x |

x | x |

(repeat above for second verse up to end chorus)

repeat the intro line twice (for the la di da's...)

--------3------- | --------0------- | --------0------- | ----------0----- |

----3-----3----- | ----3-----3----- | ----3-----3----- | --------0---0--- |

--0---0-----0--- | --2---2-----2--- | --2---2-----2--- | ------2-------2- |

---------------- | ---------------- | ---------------- | ----2----------- |

---------------- | ---------------- | ---------------- | --2------------- |

3-------------3- | 2-------------2- | 1-------------1- | 0--------------- |

--------0------- |

------1---1----- |

----0-------0--- |

--2-----------2- |

0--------------- |

---------------- | now comes the tricky part....

3-0-3-0- ---- ------ ---- ----

-------- 2-0- ------ ---- ----

-------- ---- 0-2-0- ---- ---- then grab headstock and wobble it for

-------- ---- ------ 2-0- ---- tremolo (use an Em chord)

-------- ---- ------ ---- 2-0-

(end instrumental)

--------3------- | ----3-------3--- | ----3----------- | 0-3-5-3--------- |

------3---3----- | 3-----3-3-----3- | 3-----3-------1- | ---------------- |

----0-------0--- | --0------------- | ------------0--- | ---------------- |

--0------------- | ----------0----- | --0-------2----- | ---------------- |

--------------2- | 3-------2------- | 1-------0------- | ---------------- |

3--------------- | ---------------- | ---------------- | ---------------- |

Get this song at:  amazon.com sheetmusicplus.com

Share your thoughts

0 Comments found