Extreme

Extreme - More Than Words2 guitar tab

******************************************************************************

         More Than Words / The Extreme

*****************************************************************************

Date: 1:03 PM 5/4/00

From: Deney Ysmael

Email: deney8@yahoo.com

Url: http://www.deney.homestead.com/deney

This one is my favorite acoustic song. So I 'ope you play it well.

Enjoy und have a nice nice day.

e:-----3----3----3----3----3--------3--3---------0--------3------------0----2|

B:-----3----3----3----3----3-----------3----1----1-----------1----1----1----3|

G:---------------------------------------------------------------------------|

D:---------------------------------------------------------------------------|

A:----------3---------3----------3--3--3----0----------0--0--0----3----------|

E:--3------------------------------------------------------------------------|

    

e:-----3----3----3----3----3----3--------3--3---------0----2-----3-----3-----|

B:----------3----3----3----3----3-----------3----1----1----3-----------3----1|

G:---------------------------------------------------------------------------|

D:--0------------------------------------------------------------------------|

A:---------------2---------3----------3--3--3----0------------0-------------3|

E:----------3----------------------------------------------------------3-----|

e:--0----2-----3----0----0-----------------------------------3----0----------|

B:--1----3---------------0------0------0---------------------1----1----------|

G:------------------------------0------0--------------1----------------------|

D:----------0-----------------------------------------0----------------------|

A:--------------------------------------------0----0---------0----0------0---|

E:------------------0-----------0------0-------------------------------------|

e:-2----------2------2------3----3---------------------0---------------------|

B:-3----------3------3------3----3----3----3----0------0------0------0------1|

G:------------------------------------2----2----0-------------0------0------0|

D:-0----------0------0-------------------------------------------------------|

A:------------------------------------------------------------2------2------0|

E:--------------------------3----3----2----2----0----------------------------|

e:----------------3--3-----------------0------2------1------1------1------1--|

B:------1---------1--1-----------------3------3-------------0------0------0--|

G:------0--------------------------------------------------------------------|

D:---------------------------------------------------------------------------|

A:------0------0--0--0------0---0------0---------------------------2------2--|

E:---------------------------------------------------3------3----------------|

e:----0---------------0---0---------------------------------------3---------3|

B:----1---------------1---1------4---4----------4---4------2------3---------3|

G:-------------------------------0---0----------0---0------0-----------------|

D:---------------------------------------------------------------------------|

A:----3----------3----3---3------3---3----------3---3------------------------|

E:---------------------------------------------------------3------------3---3|

e:---3-------3-------3------3------3--------3------3--------3-----------2----|

B:---3-------3-------3------3------3--------3------3--------3-----------3----|

G:---------------------------------------------------------------------------|

D:--------------------------2------------------------------------------------|

A:-------------------2-------------2---------------2-------------------------|

E:---3---2---0---0----------------------3--------------------------0----2----|

e:--0------0---3----------------------------2--------------------------------|

B:---------3----------0---------------------3------1----1----------1----1----|

G:-------------------------------------------------0----0----------0----0----|

D:--------------------------------------4----------2----2--------------------|

A:---------------------------2------2--------------3---------------3----3----|

E:---------2----------0------------------------------------------------------|

e:-----------------------------------------------------------------------2---|

B:--1------1------1------1------1----------1----------------------3------3---|

G:--0------0------0------0------0----------0----------------------2----------|

D:------------------------------2--------------2------------------0----------|

A:--3------3------3------3------0--------------0---0---0---0-----------------|

E:---------------------------------------------------------------------------|

e:----------2------3------3------3------3-------------3------3------3----2---|

B:----------3------3------3------3------3-------------3------3------3----3---|

G:---2-----------------------------------------------------------------------|

D:---0-----------------------------------------------------------------------|

A:-------------------------------2---------------------------2---------------|

E:-----------------3---------------------------3-------------------------2---|

e:---0------0----2------------------------------2----------------------------|

B:----------3-----------0-----------------------3------1------1----------1---|

G:-----------------------------------------------------0------0----------0---|

D:---------------------------------------------------------------------------|

A:-----------------------------2------2----4-----------3------3----------3---|

E:----------2-----------0----------------------------------------------------|

e:-----------------------------------------------------------3------------2~-|

B:-1------1------1------1------1------1----------1-----------1----1-------1~-|

G:-0------0------0------0------0------0----------0-----------0----0-------2~-|

D:------------------------------------------------------------------------0~-|

A:-3------3------3------3------2------0-----------------0----0----0----------|

E:---------------------------------------------------------------------------|

e:-----------------------------3---------------------------------------0-----|

B:-------------------3--------------3------------------------3--------------3|

G:--------------0---------0--------------0--------------2---------2----------|

D:---------------------------------------------------------------------------|

A:---------------------------------------------------------------------------|

E:---------3----------------------------------3----2-------------------------|

e:----------------------------------0----------------------------------------|

B:------------------------3--------------3----------------------------------0|

G:----2--------------2---------2--------------2------------------------2-----|

D:----------------------------------------------------------------2----------|

A:-----------------------------------------------------------2---------------|

E:---------2----1----------------------------------1----0--------------------|

e:----0----------------------------------0-------------------------2----3----|

B:---------0------------------------1---------1------------------------------|

G:--------------2--------------0-------------------0-------------------------|

D:------------------------2--------------------------------------------------|

A:-------------------0----------------------------------2--------------------|

E:---------------------------------------------------------------------------|

  Hammer on

e:5----+17----5----3----2----3----5----+15---5--3--2--3--5--+17--5--3--2--3--|

B:---------------------------------------------------------------------------|

G:---------------------------------------------------------------------------|

D:---------------------------------------------------------------------------|

A:---------------------------------------------------------------------------|

E:---------------------------------------------------------------------------|

e:5--+15--5--3--2--3--5--+14--5--3--2--3--5--+15--5--3--2--3--5--+14--5--3--2|

B:---------------------------------------------------------------------------|

G:---------------------------------------------------------------------------|

D:---------------------------------------------------------------------------|

A:---------------------------------------------------------------------------|

E:---------------------------------------------------------------------------|

e:--3--5--+12--5--3--2--3--5--+8--5--3--2--3--5--+7--5--3--2--5--+7--5--2--0-|

B:-----------------------------------------------------------------------slid|

G:---------------------------------------------------------------------------|

D:---------------------------------------------------------------------------|

A:---------------------------------------------------------------------------|

E:---------------------------------------------------------------------------|

e:-2--0----------------------------------------------------------------------|

B:e-up---3--0--3--0----------------------------------------------------------|

G:-----slide-up------2--0----------------------------------------------------|

D:-----------slide-down----0--2--0-------------------------------------------|

A:--------------------slide-down----2--0-------------------------------------|

E:----------------------------------------2--0----grab-headstock-and-wobble--|

e:----------------------------3-------------------3-----------3-------------3|

B:-------------------------3-----3----------3--------3--3--------3----3------|

G:----------------------0-----------0----------0-----------------------------|

D:-------------------0-------------------------------------0-------------0---|

A:-------------------------------------2----3-----------2-------------1------|

E:-it-for-tremolo.-------------------------------------------------------------|

e:-------------------slide-up-0--3--5--3|

B:--3-----------1-----------------------|

G:-----------0--------------------------|

D:--------2-----------------------------|

A:-----0--------------------------------|

E:--------------------------------------|

Lyrics:

Sayin' I love you is not the words I want to hear from you

It's not that I want you not to say But if you only knew

how easy it would be to show me how you feel more than words

is all you have to do to make it real. Then you wouldn't have

to say that you love me 'cause I'd already know.

What would you do if my heart was torn in two? More than words

to show you feel that your love for me is real. What would you

say If I took those words away? Then you couldn't make things

new just by sayin' I love you...

La di da dada di da da di dai dai da more than words La da da

da di da in' I love you La di da da da da di da da da more than

words La di da da da di da da da, more than words La da da da

da di da da da La da da da da da da da da da More than words.

Now that I have tried to talk to you And make you understand.

All you have to do is close your eyes And just reach out your

hands. And touch me, hold me close, don't ever let me go.More

than words is all I ever needed to show, Then you wouldn't have

to say That you love me 'cause I'd already

know.  

*****************************************************************************

     "DENEY's Works"

**************************

Get this song at:  amazon.com sheetmusicplus.com

Share your thoughts

0 Comments found