Extreme

Extreme - More Than Words (with Solo) guitar tab

i'm pretty sure about this one!

Send any corrections or suggestions to dugz@drug.org (Alaa) (Egypt)

INTRO:

G G/B Cadd9 Am7 C Dsus4 G

e:---3-------3-----|---0-----3-0-----|---0-----3-0-----|---0---2---3-----|

B:---3-x-3---3-x-3-|---3-x---3-3-x-1-|---1-x-1-1-1-x-1-|---1-x-3---3-x-3-|

G:---0-x-0---0-x-0-|---0-x---0-0-x-0-|---0-x-0-0-0-x-0-|---0-x-2---2-x-0-|

D:-----x-------x---|-----x-------x---|-----x-------x---|-----x---0---x---|

A:-------2-------3-|-------3---3---0-|-------0-------3-|-----------------|

E:-3---------------|-----------------|-----------------|---------------3-|

G/B Cadd9 Am7 C Dsus4 G

e:---3-------3-----|---0-----3-0-----|---0-----3-0-----|---0---2---3-----|

B:---3-x-3---3-x-3-|---3-x---3-3-x-1-|---1-x-1-1-1-x-1-|---1-x-3---3-x-3-|

G:---0-x-0---0-x-0-|---0-x---0-0-x-0-|---0-x-0-0-0-x-0-|---0-x-2---2-x-0-|

D:-----x-------x---|-----x-------x---|-----x-------x---|-----x---0---x---|

A:-------2-------3-|-------3---3---0-|-------0-------3-|-----------------|

E:-----------------|-----------------|-----------------|---------------3-|

This is the verse tab:

sayin' I love you is not the words I want to hear from

G G/B Cadd9 Am7 C Dsus4 G

e:---3-------3-----|---0-----3-0-----|---0-----3-0-----|---0---2---3-----|

B:---3-x-3---3-x-3-|---3-x---3-3-x-1-|---1-x-1-1-1-x-1-|---1-x-3---3-x-3-|

G:---0-x-0---0-x-0-|---0-x---0-0-x-0-|---0-x-0-0-0-x-0-|---0-x-2---2-x-0-|

D:-----x-------x---|-----x-------x---|-----x-------x---|-----x---0---x---|

A:-------2-------3-|-------3---3---0-|-------0-------3-|-----------------|

E:-----------------|-----------------|-----------------|---------------3-|

you it's not that I want to not to say but if you only

G/B Cadd9 Am7 C Dsus4 Em

e:---3-------3-----|---0-----3-0-----|---0-----3-0-----|---0---2---3-----|

B:---3-x-3---3-x-3-|---3-x---3-3-x-1-|---1-x-1-1-1-x-1-|---1-x-3---3-x-0-|

G:---0-x-0---0-x-0-|---0-x---0-0-x-0-|---0-x-0-0-0-x-0-|---0-x-2---2-x-0-|

D:-----x-------x---|-----x-------x---|-----x-------x---|-----x---0---x---|

A:-------2-------3-|-------3---3---0-|-------0-------3-|-----------------|

E:-----------------|-----------------|-----------------|---------------0-|

knew how easy it would be to show me how you

Em/B C D G D/F# Em

e:---0-------0-----|---0-----3-0-----|-2-----2---2---3-|-------3---2-----|

B:---0-x-0---0-x-1-|---1-x---1-1-x---|-3---x-3---3-x-3-|---3---3---3---0-|

G:---0-x-0---0-x-0-|---0-x---0-0-x---|-2---x-2---2-x-0-|---0---2---2---0-|

D:-----x-------x---|-----x-------x---|-0---x-0---0-x---|---0-------------|

A:-------2-------3-|-------3---3-----|-----------------|-----------------|

E:-----------------|-----------------|---------------3-|---3---2---2---0-|

feel more than words is all you have to do to make it real

C Am7 D G7 G7/B C

e:---0-------0-----|---0-----3-0-----|-2-----2---2---1-|---1-------1-----|

B:---0-x-----1-x-1-|---1-x---1-1-x---|-3---x-3---3-x-0-|---0---0---0---1-|

G:---0-x-----0-x-0-|---0-x---0-0-x---|-2---x-2---2-x-0-|---0---0---0---0-|

D:-----x-------x---|-----x-------x---|-0---x-0---0-x---|---0-------------|

A:-------3-------0-|-------0---0---0-|-----------------|-------2-------3-|

E:-----------------|-----------------|---------------3-|---3-------------|

then you wouldn't have to say that you love me cause

Am7 G G6 Em G/B Em G/B

e:---0-----3-0-----|---3-----3-0-----|---3-----3-0---3-|---3---3---3-----|

B:---1-x---1-1-x-1-|---1-x---1-1-x---|---3-x---3-3-x-3-|-x-3-x-3-x-3-x---|

G:---0-x---0-0-x-0-|---0-x---0-0-x---|---0-x---0-0-x-0-|-x-0-x-0-x-0-x---|

D:-----x-------x---|-----x-------x---|-----x-------x-2-|-x---x-2-x---x---|

A:-------3-------0-|-------0---0-----|-----------------|---2-------2-----|

E:-----------------|---------------3-|---------3-3-----|-----------------|

I'd already...

C D

e:-^0---------------|-^2---------------|

B:-^1---------------|-^3---------------|

G:-^0---------------|-^2---------------|

D:-^2---------------|-^0---------------|

A:-^3---------------|------------------|

E:------------------|------------------|

This is the chorus tab:

know what would you do if my heart were torn in two

G G/B G G/B D C G/B Am7 C

e:---3-------3-----|---3-------3-----|-----2---2-2-----|-----------3-----|

B:---3-x-3---3-x-3-|---3-x-3---3-x---|-3---3---3-3---1-|-x-0-x---1-1-x-1-|

G:---0-x-0---0-x-0-|---0-x-0---0-x---|-2---2---2-2---0-|-x-0-x-0-----x-0-|

D:-----x-------x---|-----x-------x---|-0-------0-0-----|-x---x-------x---|

A:-------2---------|-------2---------|---------------3-|---2---0-------3-|

E:-3-------------3-|-----------------|-----------------|-----------------|

more than words to show you feel that your love for me is

G/B Am7 D D7 G

e:---0-----0-0---0-|---0---0---3---0-|---0-----3-0---2-|---2---2---2-----|

B:---1-x---1-1-x-1-|---1-x-1-x-3-x-1-|---1-x---1-1-x-3-|-x-3-x-1-x-1-x---|

G:---0-x---0-0-x-0-|---0-x-0-x-0-x-0-|---0-x---0-0-x-2-|-x-2-x-2-x-2-x---|

D:-----x-------x---|-----x---x---x---|-----x-------x-0-|-x-0-x-0-x-0-x---|

A:---------3-3---3-|---3---3---2---0-|---0-----0-0-----|-----------------|

E:-----------------|-----------------|-----------------|---------------3-|

real what would you say if I took those words away

G/B G G/B D C G/B Am7 C

e:---3-------3-----|---3-------3-----|-----2---2-2-----|-----------3-----|

B:---3-x-3---3-x-3-|---3-x-3---3-x---|-3---3---3-3---1-|-x-0-x---1-1-x-1-|

G:---0-x-0---0-x-0-|---0-x-0---0-x---|-2---2---2-2---0-|-x-0-x-0-----x-0-|

D:-----x-------x---|-----x-------x---|-0-------0-0-----|-x---x-------x---|

A:-------2---------|-------2---------|---------------3-|---2---0-------3-|

E:---------------3-|-----------------|-----------------|-----------------|

then you couldn't make things new just by sayin' I love you

G/B Am7 D

e:---0-----0-0---0-|---0---0---3---0-|---0-----3-0---^2-|-----------------|

B:---1-x---1-1-x-1-|---1-x-1-x-3-x-1-|---1-x---1-1-x-^3-|-----------------|

G:---0-x---0-0-x-0-|---0-x-0-x-0-x-0-|---0-x---0-0-x-^2-|-----------------|

D:-----x-------x---|-----x---x---x---|-----x-------x-^0-|-----------------|

A:---------3-3---3-|---3---3---2---0-|---0-----0-0------|-----------------|

E:-----------------|-----------------|------------------|-----------------|

Solo:

e|-15--5-3-2-3-5--17-5-3-2-3-5--15-5-3-2-3-5--|

B|--------------------------------------------|

G|--------------------------------------------|

D|--------------------------------------------|

A|--------------------------------------------|

E|--------------------------------------------|

e|-14-5-3-2-3-5---15--5-3-2-3-5--|

B|-------------------------------|

G|-------------------------------|

D|-------------------------------|

A|-------------------------------|

E|-------------------------------|

e|-14-5-3-2-3-5--12-5-3-2-3-5--8-|

B|-------------------------------|

G|-------------------------------|

D|-------------------------------|

A|-------------------------------|

E|-------------------------------|

e|-5-3-2-3-5--7--5-3-2-3-5--7--5-2-0-2-0-|

B|---------------------------------------|

G|---------------------------------------|

D|---------------------------------------|

A|---------------------------------------|

E|---------------------------------------|

e|3-0-3-0-| |----| |------| |----| |----|

B|--------| |2-0-| |------| |----| |----|

G|--------| |----| |0-2-0-| |----| |----|

D|--------| |----| |------| |2-0-| |----|

A|--------| |----| |------| |----| |2-0-|

E|--------| |----| |------| |----| |----|

e|---------3------- | ----3-------3--- | ----3----------- | 0-3-5-3--------- |

B|-------3---3----- | 3-----3-3-----3- | 3-----3-------1- | ---------------- |

G|-----0-------0--- | --0------------- | ------------0--- | ---------------- |

D|---0------------- | ----------0----- | --0-------2----- | ---------------- |

A|---------------2- | 3-------2------- | 1-------0------- | ---------------- |

E|-3--------------- | ---------------- | ---------------- | ---------------- |

Get this song at:  amazon.com sheetmusicplus.com

Share your thoughts

0 Comments found