Extreme

Extreme - Money bass tab

Money (In God We Trust) (Bass)

Extreme - Pornograffitti

Tabbed by Zekeyheathy@hotmail.com, May 2001

Tuned 1/2 a step down

Moderately rock = 110 bpm

Intro

G|-------------------------|-------------------|---------------|---------------|

D|----7--------5--------4--|5--4---------------|---------------|---------------|

A|------7--------5--------5|------5-3----------|---------------|---------------|

E|5h7------5h7------5h7----|---------5-3-5---3-|-0------0------|-0-----0--0----|

G|---------------|--------------------|---------------|---------------|

D|---------------|--------------------|---------------|---------------|

A|---------------|--0---0-----4--5----|---------------|---------------|

E|-0-------0-----|-----------------4--|-0-------0-----|-0-----0--0----|

G|----------------|------------------------|

D|----------------|-6-6-7-6---------------2|

A|----------------|----7---7-5-4-5-4-------|

E|-0-------0---12\|-------------5---5-3h4--|

                                          ______________ _______

Verse                                    |1.             |2.

G|-------|-------|-------|-------|-------|---------------|---------------|

D|*------|-------|-------|-------|-------|--------------*|---------------|

A|*------|-------|-------|-------|-------|------7---4--5*|-----------4--5|

E|-0-----|--(0)--|--(0)--|--(0)--|--(0)--|-0--0---0------|-0-0-/12\-0----|

                                                                

__________________

                                                                |1.

G|-------------------|---------------------|--------------------|---------------------|

D|*------------------|---------------------|--------------------|--------------------*|

A|*0--0--0-0--0--0-0-|-0-3h4-0---0--0--0-0-|-3p0-5--3p0--0--0-0-|-0-3h4-0---0--------*|

E|-------------------|----------3----------|--------------------|----------3---3-3-3--|

  __________

|2.

G|---------------------|

D|---------------------|

A|-0-3h4-0---0--0--0-0-|

E|----------3----------|

Pre-Chorus

G|--------------------|----------------------|---------------------|-------------|

D|--------------------|----------------------|---------------------|-------------|

A|5---7--4--5--5--7---|5---7--4--5--567--567-|---7--4--5--5--7-----|-------2--2--|

E|-----------------0-0|----------------0----0|-0--------------0-0-0|-2--2--------|

Chorus

G|-------------|---------------------|------------|-------------------|

D|-------------|--------------2-2----|------------|-------------------|

A|-------------|--0--0--0--2h4---4p2-|------------|--0--0--0--/4-\-2--|

E|-0------0----|---------------------|-0------0---|-------------------|

G|-------------|---------------------|------------|---------------|

D|-------------|--------------2-2----|-0------0---|--------------*| repeat

from verse

A|-------------|--0--0--0--2h4---4p2-|------------|---------2---2*|

E|-0------0----|---------------------|------------|-3---3---------|

solo

G|-------------------|---------------------|--------------------|---------------------|

D|*------------------|---------------------|--------------------|--------------------*|

A|*0--0--0-0--0--0-0-|-0-3h4-0---0--0--0-0-|-3p0-5--3p0--0--0-0-|-0-3h4-0---0--------*|

E|-------------------|----------3----------|--------------------|----------3---3-3-3--|

  __________

|2.

G|---------------------|

D|---------------------|

A|-0-3h4-0---0--0--0-0-|

E|----------3----------|                           __________________

                                                  |1.

G|---------------|----------------|---------------|------------------|

D|*--------------|----------------|---------------|-----------------*|

A|*--------------|-----------2h4--|---------------|-0--0-0-0--4--5--*|

E|-0-------------|--(0)-----------|-0-------------|----------------4-|

  __________

|2.

G|-------------|

D|-------------|

A|--------2---2|

E|-2---2-------|

Then repeat the chorus twice with only slight changes ending in:

Outro                    x3

G|------------------------|

D|*7-6-7-6--------------2*|

A|*---7---7-5-4-5-4------*|

E|-------------5---5-3-4--|

G|-------------------------|-------------------|---------------|---------------|

D|----7--------5--------4--|5--4---------------|---------------|---------------|

A|------7--------5--------5|------5-3----------|---------------|---------------|

E|5h7------5h7------5h7----|---------5-0-3---5-|-0-------------|-(0)-----------|

Ending

G|--------|

D|--------|

A|--------|

E|---0----|

Get this song at:  amazon.com sheetmusicplus.com

Share your thoughts

0 Comments found