Extreme

Extreme - Little Girls bass tab

Little Girls (Bass)

Extreme - Extreme

Tabbed by Zekeyheathy@hotmail.com, March 2001

This is a cool first track song off their debut album.

If you want a certain song tabbed, please

don't hesitate to e-mail me and i'll do it.

Tuned 1/2 a step down

Medium Rock = 108 bpm

There is an intro harmonica solo which then leads to

the main guitar riff which lasts for 4 bars.

G|-----------|

D|-----------|

A|-----------|

E|------/15\-|

Intro

G|-----------------|-----------------|----------------|---------------------|

D|-----------------|-----------------|----------------|-------3---------5---|

A|------1----------|------------1-1--|-----1----------|-1-0-1-----1-0-1-----|

E|-3--3----3---3-3-|-1--1--1-3-----3-|-3--3---3---3-3-|---------------------|

G|----------------------|---------------------|

D|-5-3------------------|---------------------|

A|-----5-4-3--1--4-3-1--|---------------------|

E|---------------------3|--1---2---3-----/15\-|

Verse                                          x5

G|---------------------|-------------------------|---------------------|--------------------|

D|*--------------------|------------------------*|---------------------|-5--5-3-------------|

A|*--------------------|------------------------*|---------------------|--------5--4--3-----|

E|3-3-3-3-3--3-3-3-3--3|3-3-3-3-3--3-3-3-1-1-1-1-|3-3-3-3-3--3-3-3-3--3|---------------6----|

Pre-chorus

G|------0-0-2-2--3-2-0---|------0-0-2-2--3-2-0---|------2-2-4-4--5-4-2---|-----------|

D|---2-2--------------2--|---2-2--------------2--|---4-4--------------4--|-----------|

A|3-3------------------3-|3-3------------------3-|5-5------------------5-|--5--5--3--|

E|-----------------------|-----------------------|-----------------------|-----------|

Chorus

G|-----------------|-----------------|----------------|--------------------|

D|-----------------|-----------------|----------------|-----------3------3-|

A|------1----------|------------1-1--|-----1----------|5-5-3--3-5----3-5---|

E|-3--3----3---3-3-|-1--1--1-3-----3-|-3--3---3---3-3-|--------------------|

                                                       __________

                                                      |1.

G|-----------------|-----------------|----------------|---------|

D|-----------------|-----------------|----------------|---------|Return to

Verse

A|------1----------|------------1-1--|-----1----------|-5--5--3-|

E|-3--3----3---3-3-|-1--1--1-3-----3-|-3--3---3---3-3-|---------|

  _________________

|2.

G|----------------|----------------------|-------------|

D|------3-------5-|-5-3------------------|-------------|

A|1-0-1---1-0-1---|-----5-4-3--1--4-3-1--|-------------|

E|----------------|---------------------3|--1---2---3--|

G|------------------------|-----------------|-------------------------|-------------------|

D|------------------------|-----------------|-------------------------|-------------------|

A|---------------1--------|-----1-----2-1---|---------------1---------|-------------------|

E|3-0-1-3-3-0-1-3-0-1-3--3|0-1-3-0-1-3---3-3|3-0-1-3-3-0-1-3-0-1-3-3-3|-3--3-3--3-3-3-/15-|

solo

G|------0-0-2-2--3-2-0---|------0-0-2-2--3-2-0---|------2-2-4-4--5-4-2---|------2-2-4-4--5-4-2---|

D|---2-2--------------2--|---2-2--------------2--|---4-4--------------4--|---4-4--------------4--|

A|3-3------------------3-|3-3------------------3-|5-5------------------5-|5-5------------------5-|

E|-----------------------|-----------------------|-----------------------|-----------------------|

G|------0-0-2-2--3-2-0---|------0-0-2-2--3-2-0---|------2-2-4-4-4--4--5-5-6-6-|--7--7--5--|

D|---2-2--------------2--|---2-2--------------2--|---4-4----------------------|-----------|

A|3-3------------------3-|3-3------------------3-|5-5-------------------------|-----------|

E|-----------------------|-----------------------|----------------------------|-----------|

Final chorus

G|-----------------|-----------------|----------------|--------------------|

D|*----------------|-----------------|----------------|-----------3------3-|

A|*-----1----------|------------1-1--|-----1----------|5-5-3--3-5----3-5---|

E|-3--3----3---3-3-|-1--1--1-3-----3-|-3--3---3---3-3-|--------------------|

       __________________________

                                                      |1.

G|-----------------|-----------------|----------------|---------------10------10-|

D|-----------------|-----------------|----------------|----------10-12---10-12--*|

A|------1----------|------------1-1--|-----1----------|5--5--3/-----------------*|

E|-3--3----3---3-3-|-1--1--1-3-----3-|-3--3---3---3-3-|--------------------------|

  _________________

|2.

G|----------------|----------------------|-------------|

D|------3-------5-|-5-3------------------|-------------|

A|1-0-1---1-0-1---|-----5-4-3--1--4-3-1--|-------------|

E|----------------|---------------------3|--1---2---3--|

Outro

G|--------------------|-----------|

D|--------------------|-----------|

A|--------------------|-----------|

E|-3--3--3/-15-15-15\-|3---3----3-|

Get this song at:  amazon.com sheetmusicplus.com

Share your thoughts

0 Comments found