Extreme

Extreme - Lil Jack Horny guitar tab

INTRO:

******

|-------------------------------------------5(17)-4(16)--|

|--------------------------------------------------------|

|-1(13)----------4(16)---1(13)--------4(16)--------------|

|---2(14)--4(16)-----------2(14)--4(16)-4(16)------------|

|-----2(14)-----------------2(14)------------------------|

|--------------------------------------------------------|

|-------------------------------------------5(17)-4(16)--|

|--------------------------------------------------------|

|-1(13)----------4(16)---1(13)--------4(16)--------------|

|---2(14)--4(16)-----------2(14)--4(16)-4(16)------------|

|-----2(14)-----------------2(14)------------------------|

|--------------------------------------------------------|

|-----0(12)--0(12)------0(12)-----------0(12)------------|

|---0(12)-4(16)------0(12)----0(12)-4(16)-----(16)-------|

|-1(13)------------2(14)---------------------------------|

|--------------------------------------------------------|

|--------------------------------------------------------|

|--------------------------------------------------------|

|---------------------------------------------------------|

|------------5(17)-----2(14)------------------------------|

|-------4(16)-----4(16)-----2(14)-1(16)-------------------|

|--2(14)-------------------------------2(14)-X------------|

|--------------------------------------------X-PCK.SLD-DN-|

|--------------------------------------------X------------|

SWELL THE VOLUME, AND REALLY SCRATCH

WITH THE PICK SLIDE, GOING UP THEN DOWN

|--------------------------------------------|

|--------------------------------------------|

|--------------------------------------------|

|-----------------0--------------------------|

|--------4-2----------4--4/5-4/2-------------|

|-0-0-3-0----3-0--------------------3--0-----|

|-------------------------------------------|

|-------------------------------------------|

|-------------------------------------------|

|------------------------5/7---5------------|

|--------------4--2----------------2/5/2----|

|-(0)--0--3--0------3--X------------------3-|

|------------------------------------------------|

|------------------------------------------------|

|------------------------------------------------|

|--------------------------0---------------------|

|-------------4--2-------------4---4/5-4/2-------|

|--0--0--3--0-------3--0--------------------3--0-|

|------------------------------------------------|

|------------------------------------------------|

|------------------------------------------------|

|--------------------------0/2/0-----------------|

|-------------4--2------------------0--5--2------|

|--0--0--3--0-------3--0---------3-----------3---|

|--------------------------------------------------|

|--------------------------------------------------|

|--------------------------------------------------|

|-------------------------0------------------------|

|--------------4--2-----------4--4/5-4/2-----------|

|--0--0--3--0--------3--0---------------------3--0-|

|------------------------------------------------|

|------------------------------------------------|

|------------------------------------------------|

|------------------------5/7---5-----------------|

|--------------4--2----------------2/5/2---------|

|-(0)--0--3--0------3--0------------------3/5/3--|

|--------------------------------------------------|

|--------------------------------------------------|

|--------------------------------------------------|

|-------------------------0------------------------|

|--------------4--2-----------4--4/5-4/2-----------|

|--0--0--3--0--------3--0---------------------3--0-|

AAAHHHH-AHH-OWWWW!!!!

|--------------------------------------------|

|--------------------------------------------|

|--------------------------------------------|

|------------------------5/7---5-------------|

|--------------4--2----------------2/5/2-----|

|-(0)--0--3--0------3--0------------------3--|

|--------------------------------------------------|

|--------------------------------------------------|

|--------------------------------------------------|

|-------------------------0------------------------|

|--------------4--2-----------4--4/5-4/2-----------|

|--0--0--3--0--------3--0---------------------3--0-|

|------------------------------------------------|

|------------------------------------------------|

|------------------------------------------------|

|------------------------5/7---5-----------------|

|--------------4--2----------------2/5/2---------|

|-(0)--0--3--0------3--0------------------3/5/3--|

|--------------------------------------------------|

|--------------------------------------------------|

|--------------------------------------------------|

|-------------------------0------------------------|

|--------------4--2-----------4--4/5-4/2-----------|

|--0--0--3--0--------3--0---------------------3--0-|

|----------------------------------------------|

|----------------------------------------------|

|----------------------------------------------|

|----------------------------------------------|

|-----------4--2--5--7----2--5--7---------2----|

|--0--3--0-------------------------0--3---0----|

E5 G5 A5 B5 G5 E5

Moth-------------er Goose nev-

|-------------------------------------------------|

|-------------------------------------------------|

|-------------------------------------------------|

|------------2---4--------------------------------|

|--2--5--2---0---2--------5---2----------------2--|

|--0--3--0----------------3---0----------------0--|

G5 E5 A5 E5 G5 E5

-er should have ev-------er let that

|----------------------------------------------------|

|----------------------------------------------------|

|----------------------------------------------------|

|---------------2------------------------------------|

|--2--2--5--2---0--2---5---2-----4 5 / 4 5----5--|

|--0--0--3--0------0---3---0-----6 7 / 6 7----7--|

E5 G5 E5 A5 B5 G5 E5

-Jack--------- get loose.

|----------------------------------------------|

|----------------------------------------------|

|----------------------------------------------|

|--------------------2---4---------------------|

|--2-----2---5---2---0---2-------5---2---------|

|--0-----0---3---0---------------3---0---------|

******************************************************

THIS IS ALL THE SAME FOR NEXT PART

OF THE VERSE, WHICH IS:

E5 G5 E5 A5 B5 G5 E5

For that little boy blue,

G5 E5 A5 B5 G5 E5 G5 E5 A5 B5 G5 E5

keeps messin' all the things he gets his hands ------- into.

******************************************************

Bridge

******

D5 C#5 C5 B5 A#5 B5

|--------------------------------------------------|

|--------------------------------------------------|

|------------------7----6----5----4----3-----4-----|

|------------------7----6----5----4----3-----4-----|

|---4/54/5----------------------------------2-----|

|---6/76/7----------------------------------------|

C#5 D5

Now look what you've done

|----------------------------------------------------|

|----------------------------------------------------|

|--4-----------4--------4----------------4--6----7---|

|--4--4--------4--------4----------------4--6----7---|

|--2--2---5/2--2--------2------2---5/2---2--4----5---|

|----------------------------------------------------|

A E B5

|----------------------------------------------|

|---------10----9------------------------------|

|--7-------9----9-----7------7---9---7---4-----|

|--7------11----9-----7------7---9---7---4-----|

|--5-------------------------------------2-----|

|----------------------------------------------|

Stuck in your thumb pulled

|-------------------------------------------------------|

|----------------------------------------4--------------|

|--4------------6/76--4------4----------4----------7---|

|--4----------------------6---4----------4-----6----7---|

|--2--2--5/2------------------4---2---0--------4----5---|

|-------------------------------------------------------|

E5 F#5

out a plum-----.

|-------------|----------------------------------|

|-------------|---------------------------1411--|

|--9----11----|--11--11--x--x---11---11----------|

|--9----11----|--11--11--x--x---11---11----------|

|--7-----9----|---9---9--x--x----9----9----------|

|-------------|----------------------------------|

|---------------------------------9bd 1.1/2 steps------|

|-11-9---10--11--------97-----------------------------|

|---------------11--8--------8-6---------------------4-|

|----------------------------------------------------4-|

|----------------------------------------------------2-|

|------------------------------------------------------|

Chorus

******

B5

Mamma says boys will be boys (mamma says mamma says)

|---------------------------------------------------|

|-------54----2-----5-----4---4/542--------------|

|--4--------4-----4-----4---------------4---2-------|

|--4----------------------------------------2-------|

|--2----------------------------------------0-------|

|---------------------------------------------------|

C#5 D5 D9 D D

ask lit - tle Jack Horny

---Little Jack Horny (end)

|----------------------------------------------|

|----------------------------------------------|

|----------------------------------------------|

|----------------------------------------------|

|-7-11-11-12-12-13-13-14-14-13-13-12-12-11-11-7|

|----------------------------------------------|

2ND VERSE TAPPING FOR TIME WILL TELL "HOW LATE THE RABBIT WILL

ARRIVE IN WONDERLAND"

time ------- will -------- tell

+ + + + + + + + + +

|----------------------------------------------------------|

|-12/5--125

Get this song at:  amazon.com sheetmusicplus.com

Share your thoughts

0 Comments found