Extreme

Extreme - Leave Me Alone guitar tab

-##

Leave Me Alone Tab by Extreme

Tune Guitar down 1/2 Step

Tabbed by Aaron Shaw

Here's the tab for this excellent Extreme song.I think I tabbed it all out right...

this is my first attempt at transcribing something this complicated...

This tab looks nice and legible if you read it in MSDOS Edit...

Verse Riff

----------------------------|-----------------------------------|---------------

-------------------9--------|--------------------9h10p9---------|---------------

----------------9-----9-----|-----------------9----------11--9--|---------------

-------------9-----------9--|--------------9--------------------|---------------

---------11-----------------|----------11-----------------------|---------------

-12--12---------------------|--12--12---------------------------|---------------

------------------------------------|-------------------------------------|-----

------------------------------------|----------------------9h10p9---------|-----

--------------------14--------------|------------------------------11--9--|-----

------------12----------12----------|--------------11---------------------|-----

--------12------12----------12------|----------12------12-----------------|-----

12--12--------------------------12--|--12--12-----------------------------|-----

------------------------12--------|--------------------------12--------|--------

------------------9h10------10p9--|--------------------9h10------10p9--|--------

---------------9------------------|-----------------9------------------|--------

------------9---------------------|--------------9---------------------|--------

--------11------------------------|----------11------------------------|--------

12--12----------------------------|--12--12----------------------------|--------

------------------------------------|-------------------------------------|-----

------------------------------------|----------------------9h10p9---------|-----

--------------------14--------------|------------------------------11--9--|-----

------------12----------12----------|--------------11---------------------|-----

--------12------12----------12------|----------12------12-----------------|-----

12--12--------------------------12--|--12--12-----------------------------|-----

Chorus Riff

-------------------------------|-------------------------|----------------------

-------------------------------|-------------------------|----------------------

-9--13--14--13--11--9--11--13--|--13--14--13--11--9--11--|----------------------

-------------------------------|-------------------------|----------------------

-7--11--12--11--9---7--9---11--|--11--12--11--9---7--9---|----------------------

-0-----------------------------|-------------------------|----------------------

Middle Part(rhythm guitar)

-------------------|--------------|------------------------------|--------------

-------------------|--------------|------------------------------|/1------------

9--9--9--9--11--9--|--9--9--6--6--|------------------------------|--------------

-------------------|--------------|---8--2--2--2--2--2--2--2--2--|--------------

5--5--5--5--9---5--|--5--5--4--4--|---8--2--2--2--2--2--2--2--2--|--------------

0--0--0--0------0--|--0--0--------|---6--0--0--0--0--0--0--0--0--|--------------

Bend Note

------------------|-----------------|--------------------|----------------------

/12--10--9--------|-----------------|--------------------|----------------------

------------9-----|--------7--9--9--|--7--10--11bu12r11--|----------------------

---------------9--|--9h10-----------|--------------------|----------------------

------------------|-----------------|--------------------|----------------------

------------------|-----------------|--------------------|----------------------

----------------------------------|/19--17--16----------|-----------------------

----------------------------------|-------------17------|-----------------------

9------9--11--12--11h12p11--9h11--|-----------------16--|-----------------------

---12-----------------------------|---------------------|-----------------------

----------------------------------|---------------------|-----------------------

----------------------------------|---------------------|-----------------------

-------------------|---------------------|--------------------------------------

-------15--17--17--|--15--17--19bu19r19--|--------------------------------------

16h17--------------|---------------------|--------------------------------------

-------------------|---------------------|--------------------------------------

-------------------|---------------------|--------------------------------------

-------------------|---------------------|--------------------------------------

--------------------------------------|------------------------|----------------

17------17--19---10--19h20p19--17h19--|------------------------|----------------

----19--------------------------------|------------------------|----------------

--------------------------------------|--7--7--7h8--3h5--1--1--|----------------

--------------------------------------|------------------------|----------------

--------------------------------------|------------------------|----------------

-----------|------------------------|----------------|--------------------------

-----------|------------------------|----------------|--------------------------

-----------|------------------------|----------------|--------------------------

3--3h5--1--|--8--8--8h9--4h6--2--2--|--4--4--4h6--2--|--------------------------

-----------|------------------------|----------------|--------------------------

-----------|------------------------|----------------|--------------------------

================================================================================

== TABLATURE EXPLANATION ==

================================================================================

---------- ----------

----5h8--- Hammeron ----(8)--- Ghost Note

---------- ----------

----5p8--- Pulloff ----------

---------- ----------

----5/8--- Slide Up -----x---- Dead Note

---------- ----------

----5\\8--- Slide Down ----------

---------- ||------|| Repeat Start & End

----5~~~-- Vibrato ||*----*||

---------- ||*----*||

---------- ||------||

---------

--5bu7--- Bend note up

---------

---------

---------

--7r5---- Release bent note

---------

---------

Comments,CONSTRUCTIVE criticism,etc. welcome:

distort@woronzow.netkonect.co.uk

EXTREME RULE!!!

Get this song at:  amazon.com sheetmusicplus.com

Share your thoughts

0 Comments found