Extreme

Extreme - Kid Ego bass tab

Kid Ego (Bass)

Extreme - Extreme

Tabbed by Zekeyheathy@hotmail.com, May 2001

Tuned 1/2 a step down

Moderate Rock = 88 bpm

Intro

G|-----------------|----------------------|---------------------|----------------------|

D|-----------------|----------------------|---------------------|----------------------|

A|0-0-0-0--0-0-0-0-|7-5-------------------|7-5----------------5-|7-5-------------------|

E|-----------------|---7-6-5p0-3p0-3--5--0|---7-6-5p0-3p0--3----|---7-6-5p0-3p0-3--5--0|

G|-----------------------------|-----------------------|---------------------|

D|-----------------------------|-----------------------|---------------------|

A|7--5-------7-5-------7-5-----|7--5-------------------|7-5----------------5-|

E|----7-6-5-----7-6-5-----7-6-5|----7-6-5p0-3p0-3--5--0|---7-6-5p0-3p0--3----|

G|----------------------|-------------------------------|

D|----------------------|-------------------5-7-8-------|

A|7-5-------------------|7-5------------6/7-------------|

E|---7-6-5p0-3p0-3--5--0|---7-6-5p0-3p0-----------6/5-3-|

Verse

G|-----------|-------|---------|-------|--------|-------|-------|-------|----------|

D|-----------|---R---|---------|---R---|--------|-------|-------|-------|----------|

A|-----------|-------|-7-\-----|-------|-----x5-|-------|-------|-------|----------|

E|0--0-------|-------|---------|-------|-x3-----|0----0-|0----0-|0----0-|0---0-0-0-|

Pre Chorus 1

G|---------------|-----------------|---------------|------------------------|

D|---------------|-----------------|---------------|------------5-7-8-------|

A|---------------|-----------------|---------------|--------6/7-------------|

E|5-5-5-5-5-5-5-5|5-5-5-5-5-5-5-234|5-5-5-5-5-5-5-5|5-5-5-5-----------6\5-3-|

G|-------------------|-------------------|-------------------|--------|

D|-------------------|-------------------|-------------------|--------|

A|---7--------5-5----|---7--------5-5----|---7--------5-5----|------5-|

E|0-----3p0-0-----0-3|0-----3p0-0-----0-3|0-----3p0-0------5-|3-------|

Chorus

G|--------------|-----------------|-----------------|-----------------------|

D|--------------|-----------------|-----------------|------------5-7-8------|Repeat

A|--------------|-----------------|-----------------|--------6/7------------|Verse

E|5--3--3-0--0-3|5--3--3-0--0--030|5--3--3-0--0--0-3|5--5-3------------6\5-3|

                                                     _________________

Pre Chorus 2                                        |1.

G|----------------|-----------------|---------------|-----------------|-----------------------|

D|*---------------|-----------------|---------------|----------------*|------------5-7-8------|

A|*---------------|-----------------|---------------|----------------*|--------6/7------------|

E|-5-5-5-5-5-5-5-5|5-5-5-5-5-5-5-234|5-5-5-5-5-5-5-5|5-5-5-5-50234034-|5-5-5-5-----------6\5-3|

G|-------------------|-------------------|-------------------|--------|

D|-------------------|-------------------|-------------------|--------|

A|---7--------5-5----|---7--------5-5----|---7--------5-5----|------5-|

E|0-----3p0-0-----0-3|0-----3p0-0-----0-3|0-----3p0-0------5-|3-------|

Chorus

G|---------------|-----------------|-----------------|---------------------|

D|*--------------|-----------------|-----------------|--------------------*|

A|*--------------|-----------------|-----------------|--------------------*|

E|-5--3--3-0--0-3|5--3--3-0--0--030|5--3--3-0--0--0-3|5--5-3--3p0--0--0--0-|

Interlude

G|-----------------|-----------------|-----------------|----------------|

D|-----------------|-----------------|-----------------|--------775-----|

A|5-5-5-5-5-5-5-234|5-5-5-5-5-5-5-234|5-5-5-5-5-5-5-234|5-5-5-5----76530|

E|-----------------|-----------------|-----------------|----------------|

Solo

G|-----------------------|-----------------------|-----------------------|--------------------|

D|-----------------------|-----------------------|-----------------------|--------------------|

A|--------------3--------|--------------3--5--3--|--------------3--------|-------------------5|

E|5-3--5--5-5-3----5--3-5|5-3--5--5-5-3---------5|5-3--5--5-5-3----5--3-5|5-3--5--5-5-3-0-3---|

G|-----------------------|-----------------------|-----------------------|-----------------------------|

D|-----------------------|-----------------------|-----------------------|------------------5-7-8------|

A|--------------5--------|--------------5--7--5--|--------------5--------|--------------6/7------------|

E|7-5--7--7-7-5----7--5-7|7-5--7--7-7-5---------7|7-5--7--7-7-5----7--5-7|7-5--7--7-7-5-----------6\5-3|

Repeat the 2nd half of Pre Chorus 2, then repeat the Chorus 3 times with the

Ending:

Ending

G|-----------------|

D|-----------------|

A|3--3---5--5------|

E|-------------0--0|

Get this song at:  amazon.com sheetmusicplus.com

Share your thoughts

0 Comments found