Extreme

Extreme - Its A Monster Bass guitar tab

Intro

G---------------------------------|

D---------------------------------|

A---------------------------------|

E-0-0-0-0-0-0-0-0-0-0-0-0-0-0-0-0-|

G----------------------------------|

D----------------------------------|

A-----------------2-22-22----------|

E-2-22-22-00-0-00---------00-0-11--|

G----------------------------------|

D----------------------------------|

A-----------------2-22-22-4-7-2-00-|

E-2-22-22-00-0-00------------------|

G---------------------------------|

D---------------------------------|

A-----------------2-22-22---------|

E-2-22-22-00-0-00---------00-0-11-|

G-------------------------|

D-------------------------|

A-------------------------|

E-2-2-1~---00-00-0-0-00---|

Verse 1

G--------------------|

D--------------------|

A--------------------|

E-2---00-11-2--0-1-2-|

G------------------|

D------------------|

A-----4-7-4-202020-|

E-2----------------|

G--------------------|

D--------------------|

A--------------------|

E-2---00-11-2--0-1-2-|

G-------------------|

D-------------------|

A---\\9-4-7-4-202020-|

E-2-----------------|

Pre Chorus

G----------------|

D----------------|

A-00-11-2--0-1-2-| x4

E----------------|

G----------------|

D----------------|

A-22-33-4--2-3-4-| x4

E----------------|

Chorus 1 x2

G---------------------------------|

D---------------------------------|

A-----------------2-22-22---------|

D-2-22-22-00-0-00---------00-0-11-|

G----------------------------------|

D----------------------------------|

A-----------------2-22-22-4-7-2-00-|

E-2-22-22-00-0-00------------------|

G-----------------------|

D-----------------------|

A-----------------------|

E-2-2-1~---00-00-0-0-00-|

Verse

G--------------------|

D--------------------|

A--------------------|

E-2---00-11-2--0-1-2-|

G------------------|

D------------------|

A-----4-7-4-202020-|

E-2----------------|

G---------------------|

D---------------------|

A---------------------|

E-2---00-11-2--0-1-2--|

G------9876-7654-543-2-|

D----------------------|

A---\\9-----------------|

E-2--------------------|

Pre Chorus x2

Chorus 2 x2

G---------------------------------|

D---------------------------------|

A-----------------2-22-22---------|

E-2-22-22-00-0-00---------00-0-11-|

G-------------------------987-------|

D----------------------------987----|

A-----------------2-22-22-------987-|

E-2-22-22-00-0-00-------------------|

G---------------------------------|

D---------------------------------|

A-----------------2-22-22---------|

E-2-22-22-00-0-00---------00-0-11-|

G-----------------|

D-----------------|

A-----------------|

E-2-2-1~---0---0--|

G---------------------------------|

D---------------------------------|

A-----------------2-22-22---------|

E-2-22-22-00-0-00---------00-0-11-|

G-----------------------------7-9-7-------|

D-------------------------7-9-------9-7---|

A-----------------2-22-22---------------9-|

E-2-22-22-00-0-00-------------------------|

G---------------------------------|

D-------------------------8-7-6-5-|

A-----------------2-22-22---------|

E-2-22-22-00-0-00-----------------|

G-----------------------|

D-----------------------|

A-----------------------|

E-2-2-1~---00-00-0-0-00-|

Bridge (these are 11's,12's and 13's)

G-----------9-9-------13-11------------9-------------------------------|

D-11--11-9------11-9--------11-11-9-11---11-9-11/------------11-9------|

A-------------------------------------------------11-11-11-9------9-11-|

E----------------------------------------------------------------------|

G---------9-9------------------------------------13-11-9----9-11-9----11-11-|

D-----9-9-----9-11-----------------------------9---------11--------11-------|

A-11---------------11-9-------------------9-11------------------------------|

E-----------------------12-11-9-7-9-11-12-----------------------------------|

Guitar Solo

G----------------------------------------------|

D--------------------------2-------------------|

A----------------------2-4---4-2---------2---2-|

E-2---0-2--2-0-0--0-2-------------0-2--2-------|

G-----------------------------------------------|

D---------------------------2-4-2---------------|

A-------------------0-2-2-4-------4-2-----2---2-|

E-2---0-2--2-0-0--2-------------------0-2-------|

G---------------------------------------------------------|

D---------------------------------------------------------|

A-4-4-4-4-2-2-2-2-0-0-0-0---------------------------------| x2

E-------------------------4-4-4-4-2-2-2-2-1-1-1-1-0-0-0-0-|

G---------------|

D---------------|

A---------------|

E-00-00-1-1-11--|

G------------------------------------------------------------------|

D------------2-4-----2---------------------------------------------|

A--------2-4-----2-4-----------2~----22-33-4--2-3-4---44-22-0-0----|

E-2~-------------------0~---------------------------------------44-|

Ending Chorus

G---------------------------------|

D---------------------------------|

A-----------------2-22-22---------|

E-2-22-22-00-0-00---------00-0-11-|

G----------------------------------|

D----------------------------------|

A-----------------2-22-22-467-2-00-|

E-2-22-22-00-0-00------------------|

G---------------------------------|

D---------------------------------|

A-----------------2-22-22---------|

E-2-22-22-00-0-00---------00-0-11-|

G--------------------|

D--------------------|

A--------------------|

E-2-2-1~---0----0--0-|

G---------------------------------|

D---------------------------------|

A-----------------2-22-22---------|

E-2-22-22-00-0-00---------00-0-11-|

G-------------------------3-1-------|

D----------------------------3-1----|

A-----------------2-22-22-------3-1-|

E-2-22-22-00-0-00-------------------|

G---------------------------------|

D---------------------------------|

A-----------------2-22-22---------|

E-2-22-22-00-0-00---------00-0-11-|

G-----------------------|

D-----------------------|

A-----------------------|

E-2-2-1~---00-00-0-0-00-|

Ending

(no bass for about 14 seconds)

G---------------------|

D---------------------|

A------2~-------------|

E-0~-----------0-1-2~-|Added by tabs-database.com and our distinguished partners

Get this song at:  amazon.com sheetmusicplus.com

Share your thoughts

0 Comments found