Extreme

Extreme - It bass tab

It ('s a monster) (Bass)

Extreme - Porngraffitti

Tabbed by Zekeyheathy@hotmail.com, March 2001

Tuned 1/2 a step down

Moderate Rock = 126 bpm

Intro

G|-----------------|-----------------|

D|-----------------|-----------------|

A|-----------------|-----------------|

E|-1-1-1-1-1-1-1-1-|-1-1-1-1-1-1-1-1-|

G|-----------------|------------------|-----------------|---------------------|

D|-----------------|------------------|-----------------|--------------3------|

A|-----------------|3--x3--x3---------|-----------------|3--x3--x3--3h5--5p3-1|

E|3--x3--x3---x1-1-|----------1-1-1012|3--x3--x3---x1-1-|---------------------|

G|-----------------|------------------|------------|-----------------|

D|-----------------|------------------|------------|-----------------|

A|-----------------|3--x3--x3---------|------5-----|-----------------|

E|3--x3--x3---x1-1-|----------1-1-1012|3--3--------|11--11--1-1--11--|

Verse

G|--------------|----------------|------------|---------------------|

D|*-------------|----------------|------------|-----3--------------*|

A|*-------------|----------------|------------|3/5------3-1-3-1-3-1*|

E|-3------------|1-x2-x3--1-2-3--|3-----------|---------------------|

Pre-chorus      x4

G|----------------|-----------------|

D|*--------------*|*---------------*|

A|*1-x2-x3--1-2-3*|*3-x4-x5--3-4-5-*|

E|----------------|-----------------|

Chorus

G|-----------------|------------------|-----------------|---------------------|

D|-----------------|------------------|-----------------|--------------3------|

A|-----------------|3--x3--x3---------|-----------------|3--x3--x3--3h5--5p3-1|

E|3--x3--x3---x1-1-|----------1-1-1012|3--x3--x3---x1-1-|---------------------|

                                                    _________________

                                                   |1.

G|-----------------|------------------|------------|-----------------|

D|-----------------|------------------|------------|----------------*|Repeat

from

A|-----------------|3--x3--x3---------|------5-----|----------------*|  

verse

E|3--x3--x3---x1-1-|----------1-1-1012|3--3--------|11--11--1-1--11--|

  _________________

|2.

G|-----------------|------------------|-----------------|---------------------|

D|-----------------|------------------|-----------------|--------------3------|

A|-----------------|3--x3--x3---------|-----------------|3--x3--x3--3h5--5p3-1|

E|3--x3--x3---x1-1-|----------1-1-1012|3--x3--x3---x1-1-|---------------------|

G|-----------------|------------------|------------|-----------------|

D|-----------------|------------------|------------|-----------------|

A|-----------------|3--x3--x3---------|------5-----|-----------------|

E|3--x3--x3---x1-1-|----------1-1-1012|3--3--------|11--11--1-1--11--|

Bass Solo

G|-----------10-10--------|/14--12--12-------------------|------|---------------------|

D|/12--10-10-------12-12--|-----------12-14-15--12-10-11-|12-\--|------------------10-|

A|------------------------|------------------------------|------|--8----------10-12---|

E|------------------------|------------------------------|------|8---10--8--10--------|

G|------------10-10------|-------------------|----------------------------|

D|12-12--10-10-----12-12-|-------------------|--------------------12-1212-|

A|-----------------------|12--11--10-8-------|--------8-88-12-1212--------|

E|-----------------------|-------------10--8-|10-1010---------------------|

               (        FAST        )

G|12h14-12------12h14p12---------12-|

D|--------15-12---------15-12-15----|

A|----------------------------------|

E|----------------------------------|

Guitar Solo

G|-----------|---------------|---------------|---------------|

D|*----------|---------------|---------3-----|--------------*|

A|*----------|---------------|-----3-5-------|--------3-----*|

E|-3-------1-|3-----3-1----1-|3------------1-|3-----3--------|

G|-------------------|-----------------|-----------------|------------------|

D|*------------------|-----------------|-----------------|-----------------*|

A|*-5-5-5-5-3--3--3-3|1-1-1-1-0--0--0-0|-----------------|-----------------*|

E|-------------------|-----------------|3-3-3-3-1--1--1-1|0-0-0-0-0--0--0-0-|

G|----------------|-------|-------|-------|

D|----------------|-------|-------|-------|

A|----------------|-------|-------|-3-----|

E|11--11--2-2--22-|-3-----|-1-----|-------|

G|----------------|----------------|

D|----------------|----------------|

A|-1-x2-x3--1-2-3-|55--33--1-1--00-|

E|----------------|----------------|

Repeat Chorus thoughout the outro and solo then:

Ending

G|-----------|------------|---------------|---------------|

D|-----------|------------|---------------|---------------|

A|-----------|------------|-3---3-3--3--3-|---------------|

E|1----------|1-----------|---------------|--------x1-x2-3|

Get this song at:  amazon.com sheetmusicplus.com

Share your thoughts

0 Comments found