Extreme

Extreme - He-man Woman Hater Bass guitar tab

Intro / Main Riff

(no bass for the first 1:40)

G-----------------------------|---------------|------------------|

D-----------------------------|-----------4-2-|------------------|

A----432--------------432-----|-2-4-4--4-4----|-2-4-4-2-44-2-4-2-| x4

E-4-4---4322-4-4--4-4----4322-|---------------|------------------|

Verse

G-----------------------------------------------------------|

D-----------------------------------------------------------| x2

A---------------------------------------------4-4-4-4321----|

E-1-2-2-1-1-2-2-4-4-2-4-4-4-4-6-6-4-6-6-6-4-6-----------432-|

Chorus

G----------------------------------------------------------|

D----------------------------------------------------------|

A----------------------------------------------------------|x2

E-4-4-2-2-4-0-1-1-2-2-1-1-2--2-2-4-4-2-2-4-0-0-0-0-1-1-1-1-|

Main Riff x1

Verse x2

Chorus x2

Bridge (part 1)

G------------------------------|

D------------------------------|

A------------------------------| x4

E-0-2-4-0-2--4-0-0-2-4-0-2-4-0-|

G------------------------------|

D------------------------------|

A---4-6---4--6-----4-6---4-6---| x4

E-0-----0------0-0-----0-----0-|

Bridge (part 2)

G-------------------------------------------------------|

D--------------(only guitar does all of the riff here)--|

A-------------------------------------------------------|

E-2-1---4--------4-4-4-------4-4-4----------------------|

Chorus x4

Main Riff x3

Ending

G------------------|-------------|

D-----4-5-8-6------|-----4-5-----|

A-4-6---------(x3)-|-4-6-----4-2-|

E------------------|-------------|

G-------------------|------------|-------------|

D-------------------|----4-5-8-6-|-----4-5-----|

A-------------------|4-6---------|-4-6-----4-2-|

E-44444444444444444-|------------|-------------|Added by tabs-database.com and our distinguished partners

Get this song at:  amazon.com sheetmusicplus.com

Share your thoughts

0 Comments found