Extreme

Extreme - Get the funk out bass tab

From: stampa@pintsch.uucp (Raimund Stampa)

Newsgroups: rec.music.makers.bass

Subject: TAB: Extreme

Hi all,

This is no boykott to your current discussion about "sending

and receiving tabs", which is important and very interesting.

But now: Talking is over, action is on!

----------------------

GET THE FUNK OUT

by Extreme, "Pornografitti"

========================================================================

INTRODUCTION + VERSE:

e.e s e e e e. s e.e s e e e s s s s

G+------------------------+---------------------+

D|4:----------------------|---------------------|

A|4:--3-1-1-------------1-|-3-1-1---------0-1-2-|

E+----------0-1-2-3-------+-------0-1-2-3-------+

INTRODUCTION LAST TIME:

e.e s e e e e. s e.e.s s e e s e.

G+------------------------+-----2-3-4-------+

D|4:----------------------|-----------5-3-5-|

A|4:--3-1-1-------------1-|-3-1-------------|

E+----------0-1-2-3-------+-----------------+

BRIDGE ( = GUITAR SOLO PART I):

e e s s e e e e e e e s s e e e e e

G+----------------------+--------------------+

D|4:--------------------|--------------------|

A|4:------5-4-5-6-6-7-8-|-----7-6-7-8-8-9-10-|

E+----6-6---------------+-8-8----------------+

e e s s e e e e e e.e.e e e q \

G+----------------------|----------------+

D|4:------5-4-5-6-6-7-8-|---7-8-9-10-10--| (something like that)

A|4:--6-6---------------+-8--------------|

E+----------------------+----------------+

CHORUS (= GUITAR SOLO PART 2):

s e e.s s s s s s e s s s e e.s s s s s s e s s

G+----------------------------+-------------------------+

D|4:--------------------------|-------------------------|

A|4:--------1-2-----1-2-------|-------1-2-----1-2---1-2-|

E+----3---3-----3-3-----3-1-2-+-3---3-----3-3-----3-----+

h

s e e.s s s s s e.s s s e.s s s e s e e s s

G+------------------5-------+-5-------5--------------+

D|4:------------------------|-----------8-8-7-5-0-2--|

A|4:--3---3-3-4-5-6---6-6-7-|---7-6-7----------------|

E+--------------------------+------------------------+

BREAK:

| | | | | |

s s s s s s s s s s s s s s s s s s s s s s s s s s s e.s s

G+----5-3-------3---------------------+-----------------------------+

D|4:------5-3-----5-3-----5-3-------3-|-----------------------------|

A|4:------------------5-------5-4-----|-5-4-3---5-4-3-1-1-3-1-------|

E+------------------------------------+-----------------------1-2---+

B-PART:

s s s s s s s s s s s s s s s s

G+----------------------------3-4-5----+

D|*4:-------1---2---3---4---5---------*|

A|*4:-1-3-----------------------------*|

E+-------------------------------------+

s s s s s s s s s s s s s s s s

G+-------------------------------------+

D|4:--------------------------3-4-5----|

D|4:--------1---2---3---4---5----------|

E|----1-3------------------------------+

3h

s s s s s s s s s/s s s s s s s

G+-------------------------------------+

D|4:-----------------------------------|

A|4:--------1---2---3---4-3-1-3-1------| repeat whole part

E|----1-3-------------------------3-1--+

ORDER:

INTRODUCTION 4x

VERSE 3x

BRIDGE

CHORUS 2x

VERSE 4x

BRIDGE

CHORUS 3x

BREAK

B-PART

BRIDGE (GUITAR SOLO) 2x

CHORUS (GUITAR SOLO) 2x

CHORUS 1x

BREAK

CHORUS 3x

BREAK

Please notify:

1.) I am not sure, but I think the original is played with the

bass tuned a half tune down, thus starting with B (H). If so,

it makes no difference to the tabs. Please take care of it,

when you play with your band.

Sorry, but I do not have the disk with me.

2.) The Bridge is only a suggestion, but i think it is near the

truth (at least the harmonics are o.k.). It varies from time

to time. Any other suggestions would be appreciated.

3.) The Break at the end ends on "--3--".

-----------------------

Have Fun!

Raimund (Big Bass Benji)

Get this song at:  amazon.com sheetmusicplus.com

Share your thoughts

0 Comments found