Extreme

Extreme - Decadence Dance bass tab

Decadence Dance (Bass)

Extreme - Pornograffitti

Tabbed by Zekeyheathy@hotmail.com, April 2001

Tuned 1/2 a step down

Moderate Rock: 134 bpm

                   _______________________________

Intro             |1.

G|----------------|-------|-------|-------|-------|

D|:---------------|-------|-------|-------|------:|

A|:---4---2----0--|--(0)--|--(0)--|-------|------:|

E|----------------|-------|-------|-------|-------|

  _____________

|2.

G|-------------|---------|----------|--------------|

D|-------------|---------|----------|--------------|

A|-(0)--------x|0-------x|0--------x|5--5-5-5-5-5-5|

E|-------------|---------|----------|--------------|

                                   __________________________________

Pre Verse   |1.

G|----------------|---------------|----------------|-----------------|

D|:---------------|---------------|----------------|----------------:|

A|:0---0-0-0--0-0-|0---0-0-0--0-0-|0----0-0-0--0-0-|0---0-0-0---4--2:|

E|----------------|---------------|----------------|-----------------|

  __________________________________

|2.

G|----------------|-----------------|

D|-5/7-7-7-7-7-7-7|-----------------|

A|----------------|---------5----5--|

E|----------------|--3--3------5----|

Verse

Sub.for fill 1 b4 2nd chorus

G|-----------|----------|------------------|-------------------|

D|:----------|----------|-----------4/5-5/7|-----------5/7-7\5-|

A|:0---------|----------|-0--0--0-0--------|--0--0--0-0--------|

E|-----------|----------|------------------|-------------------|

            _________________________

   |1.

G|-----------|----------|-----0----------2-|-5-6---------------------|

D|-----------|----------|------------------|----7-5-7-5-------------:|

A|-0---------|----------|-3h5----3--0--0---|-----------7-6-5--5--5-3:|

E|-----------|----------|------------------|-------------------------|

________________________

|2.

G|-5-6-------------------|

D|----7-5-7-5------------|

A|-----------7-6-5-------|

E|------------------3-2--|

Pre-Chorus

G|--------------|----------------|------------------|--------------|

D|--------------|----------------|------------------|--------------|

A|--------------|----------------|-5--5-5-5-5-4-3-2-|-2--2----2p0--|

E|0--0-0-0-0-0-0|-2--2-2-2-2-2-2-|------------------|--------------|

G|-----------------|----------------|----------------|-----------|

D|-----------------|----------------|--------7-------|-----R-----|

A|------4---5---6--|-7---6---5---4--|---5--------5---|-----------|

E|0---0---0---0---0|---0---0---0----|----------------|-----------|

Chorus

G|----------------|---------------|------------------|---------------|

D|----------------|---------------|------------------|--------/-7----|

A|-5--5-5-5--5-5--|-5--5-5-5--5-5-|-5--5-5-0-3-2--0--|--0--0---------|

E|----------------|---------------|------------------|---------------|

G|----------------|------------------|------------------|-------------------|

D|--------------*-|------------------|------------------|-------------------|

A|----------5-(/7)|------------------|------------------|--5---4-5-4-5-7----|

E|---3------------|---0-------5------|-2---2-2-2-2-2-2--|-------------------|

                *Every time afterwards

Then the second pre-verse riff before going back to the chorus

Play through the verses and choruses before this pre-solo fill

                x3

G|----------------|------------------|

D|----------------|------------------|

A|-0--0-0-0--0-0--|--/7--(7)--7\-----|

E|----------------|------------------|

Solo

G|-----0---------2|-5-6-------------------|------0---------2|-5-6---------------|

D|----------------|----7-5-7-5------------|-----------------|----7-5-7----------|

A|-3h5----3--0-0--|-----------7-6-5-5-5-3-|--3h5---3--0-0---|------------5--3---|

E|----------------|-----------------------|-----------------|-------------------|

G|-------------4--|-7-8-------------------|--------------4--|-7-8----9--7----------|

D|-----7----------|----9-7-9-7------------|-----7-----------|----9-7-----9--8--7---|

A|-5h7---5--------|-----------9-8-7-7-7-5-|-5h7---5---------|--------------------10|

E|---------7------|-----------------------|---------7-------|----------------------|

G|--------------|--------------|------------------|-------------------|

D|--------------|--------------|------------------|-------------------|

A|--7-----------|--------------|------------------|-----------2-------|

E|--------------|----7---------|---0--------------|---2---------------|

G|----------------|------------------|------------------|-------------------|

D|----------------|--/-7----\--------|--2---------------|------------4------|

A|-0------------0-|------------------|------------------|-------------------|

E|----------------|------------------|------------------|0--0-0--0-0---0--0-|

G|----------------|------------------|------------------|-------------------|

D|----4-----------|------------------|------------------|--2----------------|

A|----------------|-0-0-0-0-0-0-0-0--|-2-2-2-2-2-2-2-2--|-------0-----------|

E|2-------2--2----|------------------|------------------|------------0------|

Then the intro riff with variations and then this:

G|----------------|------------------|

D|----------------|------------------|

A|----------------|------------------|

E|-3-3-3-3-3-3-3-3|-3-3-3-3-3-3-3-3--|

Outro riff

G|-----0---------2|-5-6------------------|-5-6--------------|-------------------|

D|----------------|----7-5-7-5-----------|----7-5--7-5------|-------------------|

A|-3h5----3--0-0--|-----------7-6-5-5-5-3|------------7-3--5|-3---0-3--3--3-3-0-|

E|----------------|----------------------|------------------|---3---------------|

Fill 1

G|--------------|------------------|

D|-5-5--4-5-5--4|-5-5--4--5--------|

A|--------------|------------3-----|

E|--------------|------------------|

Get this song at:  amazon.com sheetmusicplus.com

Share your thoughts

0 Comments found