Extreme

Extreme - Am I Ever Gonna Change Part 2 guitar tab

#----------------------------------PLEASE NOTE----------------------------------#

# This file is the author's own work and represents their interpretation of the #

# song. You may only use this file for private study, scholarship, or research. #

#-------------------------------------------------------------------------------#

-##

Received: from animal-farm.nevada.edu by redrock.nevada.edu (5.65c/M1.4)

with SMTP id ; Sun, 17 Oct 1993 18:28:47 -0700

Received: from diemen.utas.edu.au by animal-farm.nevada.edu id ; Sun, 17 Oct 1993 18:28:39 -0700

Received: from [131.217.61.67] (Mathematic61h67.maths.utas.edu.au) by diemen.utas.edu.au with SMTP id AA06914

(5.65c/IDA-1.4.4 for ); Mon, 18 Oct 1993 12:28:20 +1100

Date: Mon, 18 Oct 1993 12:28:20 +1100

Message-Id:

To: jamesb@animal-farm.nevada.edu

From: daniel_b@postoffice.utas.edu.au (Daniel Beckitt)

X-Sender: daniel_b@postoffice.utas.edu.au (Unverified)

Subject: TAB: Am I Ever Gonna Change (Part 2)(Band - EXTREME)

Guitar Solo:-

| | | g & | & g | | | e & a | e

& a

(1b) r (1b)^^^^

|-----------------------15-------|-15---------12----12----------------12----------|

|--------------------------------|---------------16----16-15-13-15-16----16-15-13-|

|--------------------------------|------------------------------------------------|

|--------------------------------|------------------------------------------------|

|--------------------------------|------------------------------------------------|

|--------------------------------|------------------------------------------------|

| |

| e & a | | | : | | | | |

(1/4b) (1/4b)hold.........:...............................................||

|--------------------------------|------------------------------------------------|

|--------------------------------|------------------------------------------------|

|--------2----------2------------|------------------------------------------------|

|--------2----------2------------|------------------------------------------------|

|--------------------------------|------------------------------------------------|

|-3----------3-------------------|------------------------------------------------|

| | | | | e & a | e & a

|---------------------------|-15p12-15p12-------15p12----------14h15p14-------...

|---------------------------|-------------15p12-------15p12-15----------15p12-...

|---------------------------|-------------------------------------------------...

|---------------------------|-------------------------------------------------...

|---------------------------|-------------------------------------------------...

|---------------------------|-------------------------------------------------...

|

| e & a | e & a | e & a | : | | hold.|

hold....:................................................ . .

|-------0-----------0-------|-------------------------------------------------...

|-------0-----------0-------|-------------------------------------------------...

|---------------------------|-------------------------------------------------...

|---------------------------|-------------------------------------------------...

|---------------------------|-------------------------------------------------...

|-3-2-0-------3-2-0---------|-------------------------------------------------...

| e & a | e & a | |e&ga | | e & a

(triplet) ^^^^^^^^^^^^^^ (1/2b)r (1/2b)

a.h..........|

...----------12-15p12----------------------12----------|----------------------------------|

...----------------------------------------------------|----------------------------------|

...-12h14h15----------15p14p12-14p12h14h15----15p14p12-|-14--------------11--------------|

...----------------------------------------------------|----------------------------------|

...----------------------------------------------------|----------------------------------|

...----------------------------------------------------|--------------------------------3-|

|

| | : | e&a |

| |. . ..................................................|: (1/4b)

(1/4b)hold................

...----------------------------------------------------|----------------------------------|

...----------------------------------------------------|----------------------------------|

...----------------------------------------------------|-------2-------2------------------|

...----------------------------------------------------|-------2-------2------------------|

...----------------------------------------------------|----------------------------------|

...----------------------------------------------------|-3-------3------------------------|

| + a & + a | + a & etc | |

hold......|

|-------------------------------------------------|-5-/--17---------------/17|

|-------------------------------------3---3-5p3h5-|----------------------------|

|-------------------------2---2-5p2h5---5---------|----------------------------|

|-------------------2---2---5---------------------|----------------------------|

|-------3---3-5p3h5---5---------------------------|----------------------------|

|-5p3h5---5---------------------------------------|----------------------------|

| |

| | | | : | e & a | e & a | e & a | :

.................................................|: hold.| hold.....:

|-------------------------------------------------|-------0-----------0--------|

|-------------------------------------------------|----------------------------|

|-------------------------------------------------|----------------------------|

|-------------------------------------------------|----------------------------|

|-------------------------------------------------|----------------------------|

|-------------------------------------------------|-3-2-0-------3-2-0----------|

| e & a | e & a | e & a | e

& a

|----------------------------------------------------------------------------------------|

|---12-15-14-15p12--12-15-14-15p12--12-15-14-15p12--12-15-14-15p12--12-15-14-15p12-13-12-|

|/13--------------13--------------13--------------13--------------13---------------------|

|----------------------------------------------------------------------------------------|

|----------------------------------------------------------------------------------------|

|----------------------------------------------------------------------------------------|

| | | |

:

............................................................................

............|:

|----------------------------------------------------------------------------------------|

|----------------------------------------------------------------------------------------|

|----------------------------------------------------------------------------------------|

|----------------------------------------------------------------------------------------|

|----------------------------------------------------------------------------------------|

|----------------------------------------------------------------------------------------|

| | | e & a | e & a

|--------------------------------------------------------------|

|--------------------------------------------------------------|

|--------------------------------------14------14-14-14/1714--|

|--------------------------------------------------------------|

|--------------------------------------------------------------|

|--------------------------------------------------------------|

|

| e & a | e & a | e & a | :

(1/4b) (1/4b) (1/4b) (1/4b) :

|--------------------------------------------------------------|

|--------------------------------------------------------------|

|---------2------------2-----------2-----------2---------------|

|---------2------------2-----------2-----------2---------------|

|--------------------------3-----------3-----------------------|

|-3-----------3------------------------------------------------|

| | | e & a | e & a

|--------------------------------------------------------------|

|--------------------------------------------------------------|

|--------------------------------------14------14-14-17p1413--|

|--------------------------------------------------------------|

|--------------------------------------------------------------|

|--------------------------------------------------------------|

|

| e & a | e & a | e & a | e & a :

(1/4b) (1/4b) (1/4b) (1/4b) :

|--------------------------------------------------------------|

|--------------------------------------------------------------|

|---------2------------2-----------2-----------2---------------|

|---------2------------2-----------2-----------2---------------|

|--------------------------3-----------3-----------------------|

|-3-----------3----------------------------------------------0-|

| | | e & a | e & a

|-------------------------------------------------------|

|-------------------------------12-15-14-15-12----------|

|-------------------------12-13----------------13----12-|

|----------------------14-------------------------14----|

|-------------------------------------------------------|

|-------------------------------------------------------|

|

| e & a | e & a | e & a | :

(1b) r :

|-------------------------------------------------------|

|-15---------15--------15-------------------------------|

|-------13----------13----------------------------------|

|-------------------------------------------------------|

|-------------------------------------------------------|

|-------------------------------------------------------|

|

| e & a | e & a | e & a | :

|-------0-----------0-----------------------------------|

|-------0-----------0-----------------------------------|

|-------------------------------------------------------|

|-------------------------------------------------------|

|-5-4-2-------5-4-2-------------------------------------|

|-3-2-0-----0-3-2-0-------------------------------------|

| e & a | e & a | e & a | e

& a

|----------------------------------------------------------------------------------------|

|----12-15-14-15-12-------------12-15-14-15-12-------------12-15-14-15-12-------------12-|

|-13----------------13----12-13----------------13----12-13----------------13----12-13----|

|----------------------14-------------------------14-------------------------14----------|

|----------------------------------------------------------------------------------------|

|----------------------------------------------------------------------------------------|

|

| e & a | e & a | e & a |

& :

(1b)

hold.....| :

|----------------------------------------------------------------------------------------|

|-15-------------------------------15-------------------15----------15------------------|

|-------------------13----------------------------13-------------------------------------|

|----------------------------------------------------------------------------------------|

|----------------------------------------------------------------------------------------|

|----------------------------------------------------------------------------------------|

|

| e & a | e & a | e & a |

& :

|-------------------0-----------------------------0--------------------------------------|

|-------------------0-----------------------------0--------------------------------------|

|----------------------------------------------------------------------------------------|

|----------------------------------------------------------------------------------------|

|-5-----4-----2--------------------5-----4-----2-----------------------------------------|

|-3-----2-----0--------------0-----3-----2-----0-----------------------------------------|

| e & a | | |

|--------------------------------------------------------------|

|--------------------------------------------------------------|

|-14-12--------------------------------------------------------|

|---------14---------------------------------------------------|

|--------------------------------------------------------------|

|--------------------------------------------------------------|

|

| | | e & a | e & a :

|--------------------------------------------------------------|

|--------------------------------------------------------------|

|--------------------------------------14------14-14-14/1714--|

|--------------------------------------------------------------|

|--------------------------------------------------------------|

|--------------------------------------------------------------|

|

| e & a | e & a | e & a | e & a :

(1/4b) (1/4b) (1/4b) (1/4b) :

|--------------------------------------------------------------|

|--------------------------------------------------------------|

|---------2------------2-----------2-----------2---------------|

|---------2------------2-----------2-----------2---------------|

|--------------------------3-----------3-------------3-p0------|

|-3-----------3--------------------------------------------3p0-|

| | | e & a | e & a

|--------------------------------------------------------------|

|--------------------------------------------------------------|

|--------------------------------------14------14-14-17p1413--|

|--------------------------------------------------------------|

|--------------------------------------------------------------|

|--------------------------------------------------------------|

|

| e & a | e & a | e & a | e & a :

(1/4b) (1/4b) (1/4b) (1/4b) :

|--------------------------------------------------------------|

|--------------------------------------------------------------|

|---------2------------2-----------2-----------2---------------|

|---------2------------2-----------2-----------2---------------|

|--------------------------3-----------3-------------3-p0------|

|-3-----------3--------------------------------------------3p0-|

| | | e & a | e & a

|-------------------------------------------------------|

|-------------------------------12-15-14-15-12----------|

|-------------------------12-13----------------13----12-|

|----------------------14-------------------------14----|

|-------------------------------------------------------|

|-------------------------------------------------------|

|

| e & a | e & a | e & a | :

(1b) r :

|-------------------------------------------------------|

|-15---------15--------15-------------------------------|

|-------13----------13----------------------------------|

|-------------------------------------------------------|

|-------------------------------------------------------|

|-------------------------------------------------------|

|

| e & a | e & a | e & a | :

|-------0-----------0-----------------------------------|

|-------0-----------0-----------------------------------|

|-------------------------------------------------------|

|-------------------------------------------------------|

|-5-4-2-------5-4-2-------------------------------------|

|-3-2-0-----0-3-2-0-------------------------------------|

| e & a | e & a | e & a | e

& a

|-------------------------------------------------------------------------------------------|

|----12-15-14-15-12-------------12-15-14-15-12-------------12-15-14-15-12----------------12-|

|-13----------------13----12-13----------------13----12-13----------------13-------12-13----|

|----------------------14-------------------------14----------------------------14----------|

|-------------------------------------------------------------------------------------------|

|-------------------------------------------------------------------------------------------|

Am I :

|

| e & a | e & a | e & a |

& a :

|-------------------------------------------------------------------------------------------|

|-15-------------------------------15-------------------------------------------------------|

|-------------------13----------------------------------12-14p12----------------------------|

|-------------------------------------------------12h14----------14-12----------------------|

|----------------------------------------------------------------------14-13-12-10----------|

|----------------------------------------------------------------------------------12-10----|

|

| e & a | e & a | e & a |

& :

hold...................................................................|:

|-------------------0-----------------------------------------------------------------------|

|-------------------0-----------------------------------------------------------------------|

|-------------------------------------------------------------------------------------------|

|-------------------------------------------------------------------------------------------|

|-5-----4-----2-----------------------------------------------------------------------------|

|-3-----2-----0-----------------------------------------------------------------------------|

Chorus:

w/Rhythm Figure 2 (1st 4 bars only)

| e & a | e & a | | e & a : | e & a | e & a | | e & a :

ev er gon na change, will I al ways stay the same? If I

Change.

| e & a | e & a | e & a | e :

say one thing, then I do the oth er,

| e & a | e & a | e & a | e & a :

same old song that goes on for ev er.

Am I

w/Rhythm Figure 2

| e & a | e & a | | e & a : | e & a | e & a | | e & a

Well, I'm the on ly one to blame. I

ev er gon na change? Blame.

| e & a | e & a | e & a | e & a :

think I'm right, I wind up wrong, it's a funk

| e & a | e & a | & | e & a :

y fight gone on too long.

Am I

| e & a | e & a | | e & a : | e & a | & | | e & a :

I'll take it day by day. The

ev er gon na change? Change.

| e & a | e & a | e & a | :

will is weak and my flesh too strong.

| e & a | e & a | & | :

Peace I seek till thy king dom

| | | | e & a | e & g a | g & | e & a g | e & a

(1b) (1b) r (1b)

8va.............................................

|-------------20--|-20----22-------22-------20p19--20-----x-x-|

|-------------------------------------------------------------|

|-------------------------------------------------------------|

|-------------------------------------------------------------|

|-------------------------------------------------------------|

|-------------------------------------------------------------|

comes.

g | e & a | g | e & a | & | e & a I e & a | e & a | e & a | | | |

(1/2b) r (1/2b)^^^ (1/2b) r p.m.............................|

8va...............................|

|-19------------------19--------p17|---------------------------------|-3-------|

|-----------------------------------|---------------------------------|-3-------|

|-----------------------------------|-----5-----5-------2-0-----0-----|-0-------|

|-----------------------------------|/7-----7-5---7-5-2-----2-----2---|-0-------|

|-----------------------------------|-------------------------3-----3-|---------|

|-----------------------------------|---------------------------------|---------|

w/Rhythm Figures 1 & 1A (till end)

| | | e & a | g e & a | | g | e & a | g & | | | | e & a

(1b)hold......| (1b) r (1/2b)hold....|

hold.

|-------------------------------|-----------------------------|-----------------|

|-------------------------------|--------------------12-------|-------13p12p10--|

|-------------12-14-14----------|-----14---------p12----------|-----------------|

|-------12-14-------------------|-----------------------------|-----------------|

|-------------------------------|-----------------------------|-----------------|

|-------------------------------|-----------------------------|-----------------|

| | | g e & a | e & a | e & a | | | | | e & a | e & a |

hold.| (1b) r ^^^^ (1b) r (1b) rhold...|

|--------10-----------8p7-|---8p7---------|---15-15-------------------------|

|-------------------------|---------------|---------------------------------|

|-------------------------|---------------|---------------------------------|

|-------------------------|---------------|---------------------------------|

|-------------------------|---------------|---------------------------------|

|-------------------------|---------------|---------------------------------|

| | | | | e & a | e & a | e & a | e & a | e & a | e

& a | |

(1b)

rhold..|

|---------|---17---14-17-14-15----14----------------------|-----------------------|

|---------|--------------------17----15-17----15----------|-----------------------|

|---------|--------------------------------17----16-17-16-|-------12--------------|

|---------|-----------------------------------------------|-----------------------|

|---------|-----------------------------------------------|-----------------------|

|---------|-----------------------------------------------|-----------------------|

(right)

| | | & | e & a | e & a | | | | e & a | | e & a |

e & a

p.m. throughout

|-------------------|--------------------------------|----------------------------|

|-------10-----10-8-|---10---------------------------|--------10----7-----7-7-----|

|-------------------|-------9------------------------|----------------------------|

|-------------------|--------------------------------|----------------------------|

|-------------------|--------------------------------|----------------------------|

|-------------------|--------------------------------|----------------------------|

(left) | |

|

| | | | : | | | e & a | e & a : | e & a | | e & a |

e & a :

|-------------------|--------------10----10-10-10-10-|-10-8---8-----5-----5-5-----|

|-------------------|--------------8-----8--8--8--8--|-8------------7-----7-7-----|

|-------------------|--------------------------------|----------------------------|

|-------------------|--------------------------------|----------------------------|

|-------------------|--------------------------------|----------------------------|

|-------------------|--------------------------------|----------------------------|

| | e & a | & | e & a | e & a | e & a | e & a | e & a

|-----------------------------|-7-------------------------------|

|---------8-----8---8---10----|-------10----8-----------------5-|

|---------7-----7---7---7-----|-------------7-----9-----7-----5-|

|-----------------------------|---------------------------------|

|-----------------------------|---------------------------------|

|-----------------------------|---------------------------------|

| |

| e & a | e & a | & | e & a : | e & a | e & a | e & a | e & a :

p.m........| :

|-----------------------------|---------------------------------|

|-------8---8-8---8-----------|-------8---8-8-----8-------8-----|

|-------7---7-9---7---7-7-9-7-|-7-----7---7-7-----------9-------|

|-----------------------------|---------------------------------|

|-----------------------------|---------------------------------|

|-----------------------------|---------------------------------|

| e & a | e & a | e & a | e & a : | e & a | e & a | e & a | e & a :

|----------------------------------|---------------------------------|

|-----5------------------------3---|---3-----------------------------|

|-----5---5----4-5-2---4-2-5-----5-|-----4-5-2-4---2-----------------|

|----------------------------------|-------------5---4-5-2-4---2-----|

|----------------------------------|-------------------------5---3-5-|

|----------------------------------|---------------------------------|

| |

| e & a | e & a | e & a | e & a : | e & a | e & a | e & a | e & a :

: p.m......| :

|--------------------7-----7-7-----|-7-----------------5-----5-5-----|

|-8-----10--10-10----8-----8-8-----|-8-----------------7-----7-7-----|

|-------7---7--7-------------------|-----7-7---7-7-------------------|

|----------------------------------|---------------------------------|

|----------------------------------|---------------------------------|

|----------------------------------|---------------------------------|

| e & a | e & a | e & a | e & a : | e & a | e & a | e & a | e & a

|-----------------------------7-7-|-----------------------------7-7-|

|---------------------8---10------|---------------------8---10------|

|-----------------7---------------|-----------------7---------------|

|---------------------------------|---------------------------------|

|-2-------------------------------|---------------------------------|

|---------------------------------|---------------------------------|

| |

| e & a | e & a | e & a | e & a : | e & a | e & a | e & a | e & a :

|---------------------------------|---------------------------------|

|-8-----8---8-8---8-8---8-8-------|-8-----8---8-8---8-8-8-8-8-8---5-|

|-7-----7---7-7---7-7---7-7-------|-7-----7---7-7---7-7-7-7-7-7---5-|

|---------------------------------|---------------------------------|

|---------------------------------|---------------------------------|

|---------------------------------|---------------------------------|

| e & a | e & a | e & a | e & a

|-7h8p7----------------------------||

|-------10----10-8-----8-10--------||

|--------------------7-------7-7-7-||

|----------------------------------||

|----------------------------------||

|----------------------------------|| F A D E O U T . . .

||

| e & a | e & a | e & a | e & a ::

|-------5---5-5----------3-3-3-3-3-||

|---5-5-5---5-5----------3-3-3-3-3-||

|---5-5-5---5-5--------------------||

|----------------------------------||

|----------------------------------||

|----------------------------------||

Whew!

Daniel Beckitt

University of Tasmania

daniel_b@postoffice.utas.edu.au

Get this song at:  amazon.com sheetmusicplus.com

Share your thoughts

0 Comments found