Exide

Exide - Untitled guitar tab

another exide song

h - hammer on

p - pull off

b - bend string up

/ - slide up

\ - slide down

* - palm muted

standard tuning (e,B,G,D,A,E)

intro

guitar1

e-------------------1-1-1-1--0-0-0-0----------------------------

b-3-3-3-3--1-1-1-1--1-1-1-1--1-1-1-1----------------------------

g-2-2-2-2--2-2-2-2-------------------------x2-duble3,4time------

d---------------------------------------------------------------

a---------------------------------------------------------------

e---------------------------------------------------------------

guitar2

e---------------------------------------------------------------------------

b-15-15-15-15---------------13-13-13-13-------------------------------------

g-14-14-14-14--10-10-10-10--12-12-12-12--12-12-12-12------------------------

d-12-12-12-12--10-10-10-10--10-10-10-10--12-12-12-12--x2-double3,4time------

a--------------8--8--8--8----------------10-10-10-10------------------------

e---------------------------------------------------------------------------

vers

guitar1&2

e---------------------------------------------------------------------------------

b---------------------------------------------------------------------------------

g---------------------------------------------------------------------------------

d-7-7-7-7-7-7-7-7-------------------5-5-5-5-5-5-5-5----------------palm muted-3x--

a-5-5-5-5-5-5-5-5--3-3-3-3-3-3-3-3--3-3-3-3-3-3-3-3--5-5-5-5-5-5-5-5--------------

e------------------1-1-1-1-1-1-1-1-------------------3-3-3-3-3-3-3-3--------------

bridge

guitar1

e-----------------------------------1-1-1-1-1-1-1-1--0-0-0-0-0-0-0-0------

b-3-3-3-3-3-3-3-3--1-1-1-1-1-1-1-1--1-1-1-1-1-1-1-1--1-1-1-1-1-1-1-1------

g-2-2-2-2-2-2-2-2--2-2-2-2-2-2-2-2----------------------------------------

d---------------------------------------------------------------------x2--

a-------------------------------------------------------------------------

e-------------------------------------------------------------------------

guitar2

e-------------------------------------------------------------------------

b-------------------------------------------------------------------------

g-------------------------------------------------------------------------

d-7-7-7-7-7-7-7-7-------------------5-5-5-5-5-5-5-5-------------------x2--

a-5-5-5-5-5-5-5-5--3-3-3-3-3-3-3-3--3-3-3-3-3-3-3-3--5-5-5-5-5-5-5-5------

e------------------1-1-1-1-1-1-1-1-------------------3-3-3-3-3-3-3-3------

vers

pre chorus

guitar1&2

e----------------------------------------------------------------------------------

b----------------------------------------------------------------------------------

g----------------------------------------------------------------------------------

d-7-7-7-7-7-7-7-7-7-7-7-7-7-7-7-7-10-10-10-10-10-10-10-10-10-10-10-10-10-10-10-10-x2

a-5-5-5-5-5-5-5-5-5-5-5-5-5-5-5-5-8--8--8--8--8--8--8—-8--8--8--8-—8--8--8--8--8--

e----------------------------------------------------------------------------------

chorus

guitar1

e---------------------------------------------------------------------------

b---------------------------------------------------------------------------

g---------------------------------------------------------------------------

d-7-7-7-7-7-7-7-7---------------------5-5-5-5-5-5-5-5--------------------x2-

a-5-5-5-5-5-5-5-5--3-3-3-3-3-3-3-3-3--3-3-3-3-3-3-3-3--5-5-5-5-5-5-5-5------

e------------------1-1-1-1-1-1-1-1-1-------------------3-3-3-3-3-3-3-3------

e---------------------------------------------------------------------------

b-15-15-15-15---------------13-13-13-13-------------------------------------

g-14-14-14-14--10-10-10-10--12-12-12-12--12-12-12-12------------------------

d-12-12-12-12--10-10-10-10--10-10-10-10--12-12-12-12—x2---------------------

a--------------8--8--8--8----------------10-10-10-10------------------------

e---------------------------------------------------------------------------

bridge

vers

pre chorus

chorus

solo   e---10---------10----------

       b-8-----------8------------

       g-------10---------10-7---------          

       d-------------------------10--------      

chorus x2

                                                 henrik lilja

Get this song at:  amazon.com sheetmusicplus.com

Share your thoughts

0 Comments found