Exide

Exide - Emperor guitar tab

EXIDE - EMPEROR

this is my band's first song. it's also my first tab so its probably not the best

tab ever made.

h - hammer on

p - pull off

b - bend string up

/ - slide up

\ - slide down

* - palm muted

standard tuning (e,B,G,D,A,E)

INTRO.1:

guitar.1

e-----------------------------------------

b-----------------------------------------

g-----------------------------------------

d-4-4-4-4--9-9-9-9--5-5-5-5--7-7-7-7--x4--

a-4-4-4-4--9-9-9-9--5-5-5-5--7-7-7-7------

e-2-2-2-2--7-7-7-7--3-3-3-3--5-5-5-5------

  * * * *  * * * *  * * * *  * * * *

guitar.2

e-------------------------------------------------------7-7-9-7--

b-12-12----------------------------12-12----------------5-5-5-5--

g-11-11--11-11--12-12--14-14--x3---11-11--11-11--12-12-----------

d-9--9---11-11--12-12--14-14-------9--9---11-11--12-12-----------

a--------9--9---10-10--12-12--------------9--9---10-10-----------

e----------------------------------------------------------------

INTRO.2:

guitar.1

e---------------------------------------------------------------------

b---------------------------------------------------------------------

g------------------4-4-4-4-4-4-4-4-------------------2-2-2-2-2-2-2-2--

d-4-4-4-4-4-4-4-4--4-4-4-4-4-4-4-4-------------------2-2-2-2-2-2-2-2--

a-4-4-4-4-4-4-4-4--2-2-2-2-2-2-2-2--5-5-5-5-5-5-5-5--0-0-0-0-0-0-0-0--

e-2-2-2-2-2-2-2-2-------------------3-3-3-3-3-3-3-3-------------------

guitar.2

e-9-9-9-9-9-9-9-9-10-10-10-10-10-10-10-10\7-7-7-7-7-7-7-7-9-9-9-9-9-9-9-7--

b-7-7-7-7-7-7-7-7-7--7--7--7--7--7--7--7-\5-5-5-5-5-5-5-5-5-5-5-5-5-5-5-5--

g--------------------------------------------------------------------------

d--------------------------------------------------------------------------

a--------------------------------------------------------------------------

e--------------------------------------------------------------------------

guitar.1

e-------------------------------------------------------------------

b-------------------------------------------------------------------

g------------------4-4-4-4-4-4-4-4----------------------------------

d-4-4-4-4-4-4-4-4--4-4-4-4-4-4-4-4--5-5-5-5-5-5-5-5--2-2-2-2-2-2-2--

a-4-4-4-4-4-4-4-4--2-2-2-2-2-2-2-2--5-5-5-5-5-5-5-5--2-2-2-2-2-2-2--

e-2-2-2-2-2-2-2-2-------------------3-3-3-3-3-3-3-3--0-0-0-0-0-0-0--

                                                             * * *

guitar.2

e-9-9-9-9-9-9-9-9-10-10-10-10-10-10-10-10\7-7-7-7-7-7-7-7-9-9-9-9-9-9-9-7--

b-7-7-7-7-7-7-7-7-7--7--7--7--7--7--7--7-\5-5-5-5-5-5-5-5-5-5-5-5-5-5-5-5--

g--------------------------------------------------------------------------

d--------------------------------------------------------------------------

a--------------------------------------------------------------------------

e--------------------------------------------------------------------------

guitar.1

e---------------------------------------------------------------------

b---------------------------------------------------------------------

g------------------4-4-4-4-4-4-4-4-------------------2-2-2-2-2-2-2-2--

d-4-4-4-4-4-4-4-4--4-4-4-4-4-4-4-4--5-5-5-5-5-5-5-5--2-2-2-2-2-2-2-2--

a-4-4-4-4-4-4-4-4--2-2-2-2-2-2-2-2--5-5-5-5-5-5-5-5--0-0-0-0-0-0-0-0--

e-2-2-2-2-2-2-2-2-------------------3-3-3-3-3-3-3-3-------------------

guitar.2

e-9-9-9-9-9-9-9-9-10-10-10-10-10-10-10-10\7-7-7-7-7-7-7-7-9-9-9-9-9-9-7\5--

b-7-7-7-7-7-7-7-7-7--7--7--7--7--7--7--7-\5-5-5-5-5-5-5-5-5-5-5-5-5-5-5\3--

g--------------------------------------------------------------------------

d--------------------------------------------------------------------------

a--------------------------------------------------------------------------

e--------------------------------------------------------------------------

VERSE:

guitar.1

e---------------------------------------------------------------------

b---------------------------------------------------------------------

g------------------4-4-4-4-4-4-4-4-------------------2-2-2-2-2-2-2-2--

d-4-4-4-4-4-4-4-4--4-4-4-4-4-4-4-4-------------------2-2-2-2-2-2-2-2--

a-4-4-4-4-4-4-4-4--2-2-2-2-2-2-2-2--5-5-5-5-5-5-5-5--0-0-0-0-0-0-0-0--

e-2-2-2-2-2-2-2-2-------------------3-3-3-3-3-3-3-3-------------------

  * * * * * * * *  * * * * * * * *  * * * * * * * *  * * * * * * * *

guitar.2

e---------------------------------------------------------------------

b---------------------------------------------------------------------

g---------------------------------------------------------------------

d-4--let ring---------------------------------------------------------

a-4-------------------------------------------------------------------

e-2-------------------------------------------------------------------

guitar.1

e---------------------------------------------------------------------

b---------------------------------------------------------------------

g------------------4-4-4-4-4-4-4-4-------------------2-2-2-2-2-2-2-2--

d-4-4-4-4-4-4-4-4--4-4-4-4-4-4-4-4--5-5-5-5-5-5-5-5--2-2-2-2-2-2-2-2--

a-4-4-4-4-4-4-4-4--2-2-2-2-2-2-2-2--5-5-5-5-5-5-5-5--0-0-0-0-0-0-0-0--

e-2-2-2-2-2-2-2-2-------------------3-3-3-3-3-3-3-3-------------------

  * * * * * * * *  * * * * * * * *  * * * * * * * *  * * * * * * * *

guitar.2

e------------------2-2-2-2-2-2-2-2-2-2-2-2-2-2-2-2-2-2-2-2-2-2-2-2----

b-------------------2-2-2-2-2-2-2-2-2-2-2-2-2-2-2-2-2-2-2-2-2-2-2-2---

g---------------------------------------------------------------------

d-4-------------------------------------------------------------------

a-4-------------------------------------------------------------------

e-2-------------------------------------------------------------------

                   ************************************************

guitar.1

e---------------------------------------------------------------------

b---------------------------------------------------------------------

g------------------4-4-4-4-4-4-4-4-------------------2-2-2-2-2-2-2-2--

d-4-4-4-4-4-4-4-4--4-4-4-4-4-4-4-4--5-5-5-5-5-5-5-5--2-2-2-2-2-2-2-2--

a-4-4-4-4-4-4-4-4--2-2-2-2-2-2-2-2--5-5-5-5-5-5-5-5--0-0-0-0-0-0-0-0--

e-2-2-2-2-2-2-2-2-------------------3-3-3-3-3-3-3-3-------------------

  * * * * * * * *  * * * * * * * *  * * * * * * * *  * * * * * * * *

guitar.2

e---------------------------------------------------------------------

b---------------------------------------------------------------------

g---------------------------------------------------------------------

d-4-4-4-4-4-4-4-4--9-9-9-9-9-9-9-9--5-5-5-5-5-5-5-5--7-7-7-7-7-7-7-7--

a-4-4-4-4-4-4-4-4--9-9-9-9-9-9-9-9--5-5-5-5-5-5-5-5--7-7-7-7-7-7-7-7--

e-2-2-2-2-2-2-2-2--7-7-7-7-7-7-7-7--3-3-3-3-3-3-3-3--5-5-5-5-5-5-5-5--

  * * * * * * * *  * * * * * * * *  * * * * * * * *  * * * * * * * *

guitar.1

e---------------------------------------------------------------------

b---------------------------------------------------------------------

g------------------4-4-4-4-4-4-4-4-------------------2-2-2-2-2-2-2-2--

d-4-4-4-4-4-4-4-4--4-4-4-4-4-4-4-4--5-5-5-5-5-5-5-5--2-2-2-2-2-2-2-2--

a-4-4-4-4-4-4-4-4--2-2-2-2-2-2-2-2--5-5-5-5-5-5-5-5--0-0-0-0-0-0-0-0--

e-2-2-2-2-2-2-2-2-------------------3-3-3-3-3-3-3-3-------------------

  * * * * * * * *  * * * * * * * *  * * * * * * * *  * * * * * * * *

guitar.2

e---------------------------------------------------------------------

b---------------------------------------------------------------------

g---------------------------------------------------------------------

d-4-4-4-4-4-4-4-4--9-9-9-9-9-9-9-9--5-5-5-5-5-5-5-5--7-7-7-7-7-7-7-7--

a-4-4-4-4-4-4-4-4--9-9-9-9-9-9-9-9--5-5-5-5-5-5-5-5--7-7-7-7-7-7-7-7--

e-2-2-2-2-2-2-2-2--7-7-7-7-7-7-7-7--3-3-3-3-3-3-3-3--5-5-5-5-5-5-5-5--

  * * * * * * * *  * * * * * * * *  * * * * * * * *  * * * * * * * *

CHORUS:

guitar.1&2

e---------------------------------------------------------------------

b---------------------------------------------------------------------

g-4-4-4-4-4-4-4-4--------------------------------------------7-7-7----

d-4-4-4-4-4-4-4-4--5-5-5-5-5-5-5-5--7-7-7-7-7-7-7-7--7-7-7-7-7-7-7-7--

a-2-2-2-2-2-2-2-2--5-5-5-5-5-5-5-5--7-7-7-7-7-7-7-7--7-7-7-7-5-5-5-7--

e------------------3-3-3-3-3-3-3-3--5-5-5-5-5-5-5-5--5-5-5-5-------5--

e---------------------------------------------------------------------

b---------------------------------------------------------------------

g-4-4-4-4-4-4-4-4--------------------------------------------7-7-7----

d-4-4-4-4-4-4-4-4--5-5-5-5-5-5-5-5--7-7-7-7-7-7-7-7--7-7-7-7-7-7-7-7--

a-2-2-2-2-2-2-2-2--5-5-5-5-5-5-5-5--7-7-7-7-7-7-7-7--7-7-7-7-5-5-5-7--

e------------------3-3-3-3-3-3-3-3--5-5-5-5-5-5-5-5--5-5-5-5-------5--

VERSE:

guitar.1

e---------------------------------------------------------------------

b---------------------------------------------------------------------

g------------------4-4-4-4-4-4-4-4-------------------2-2-2-2-2-2-2-2--

d-4-4-4-4-4-4-4-4--4-4-4-4-4-4-4-4-------------------2-2-2-2-2-2-2-2--

a-4-4-4-4-4-4-4-4--2-2-2-2-2-2-2-2--5-5-5-5-5-5-5-5--0-0-0-0-0-0-0-0--

e-2-2-2-2-2-2-2-2-------------------3-3-3-3-3-3-3-3-------------------

  * * * * * * * *  * * * * * * * *  * * * * * * * *  * * * * * * * *

guitar.2

e---------------------------------------------------------------------

b---------------------------------------------------------------------

g---------------------------------------------------------------------

d-4--let ring---------------------------------------------------------

a-4-------------------------------------------------------------------

e-2-------------------------------------------------------------------

guitar.1

e---------------------------------------------------------------------

b---------------------------------------------------------------------

g------------------4-4-4-4-4-4-4-4-------------------2-2-2-2-2-2-2-2--

d-4-4-4-4-4-4-4-4--4-4-4-4-4-4-4-4--5-5-5-5-5-5-5-5--2-2-2-2-2-2-2-2--

a-4-4-4-4-4-4-4-4--2-2-2-2-2-2-2-2--5-5-5-5-5-5-5-5--0-0-0-0-0-0-0-0--

e-2-2-2-2-2-2-2-2-------------------3-3-3-3-3-3-3-3-------------------

  * * * * * * * *  * * * * * * * *  * * * * * * * *  * * * * * * * *

guitar.2

e------------------2-2-2-2-2-2-2-2-2-2-2-2-2-2-2-2-2-2-2-2-2-2-2-2----

b-------------------2-2-2-2-2-2-2-2-2-2-2-2-2-2-2-2-2-2-2-2-2-2-2-2---

g---------------------------------------------------------------------

d-4-------------------------------------------------------------------

a-4-------------------------------------------------------------------

e-2-------------------------------------------------------------------

                   ************************************************

guitar.1

e---------------------------------------------------------------------

b---------------------------------------------------------------------

g------------------4-4-4-4-4-4-4-4-------------------2-2-2-2-2-2-2-2--

d-4-4-4-4-4-4-4-4--4-4-4-4-4-4-4-4--5-5-5-5-5-5-5-5--2-2-2-2-2-2-2-2--

a-4-4-4-4-4-4-4-4--2-2-2-2-2-2-2-2--5-5-5-5-5-5-5-5--0-0-0-0-0-0-0-0--

e-2-2-2-2-2-2-2-2-------------------3-3-3-3-3-3-3-3-------------------

  * * * * * * * *  * * * * * * * *  * * * * * * * *  * * * * * * * *

guitar.2

e---------------------------------------------------------------------

b---------------------------------------------------------------------

g---------------------------------------------------------------------

d-4-4-4-4-4-4-4-4--9-9-9-9-9-9-9-9--5-5-5-5-5-5-5-5--7-7-7-7-7-7-7-7--

a-4-4-4-4-4-4-4-4--9-9-9-9-9-9-9-9--5-5-5-5-5-5-5-5--7-7-7-7-7-7-7-7--

e-2-2-2-2-2-2-2-2--7-7-7-7-7-7-7-7--3-3-3-3-3-3-3-3--5-5-5-5-5-5-5-5--

  * * * * * * * *  * * * * * * * *  * * * * * * * *  * * * * * * * *

guitar.1

e---------------------------------------------------------------------

b---------------------------------------------------------------------

g------------------4-4-4-4-4-4-4-4-------------------2-2-2-2-2-2-2-2--

d-4-4-4-4-4-4-4-4--4-4-4-4-4-4-4-4--5-5-5-5-5-5-5-5--2-2-2-2-2-2-2-2--

a-4-4-4-4-4-4-4-4--2-2-2-2-2-2-2-2--5-5-5-5-5-5-5-5--0-0-0-0-0-0-0-0--

e-2-2-2-2-2-2-2-2-------------------3-3-3-3-3-3-3-3-------------------

  * * * * * * * *  * * * * * * * *  * * * * * * * *  * * * * * * * *

guitar.2

e---------------------------------------------------------------------

b---------------------------------------------------------------------

g---------------------------------------------------------------------

d-4-4-4-4-4-4-4-4--9-9-9-9-9-9-9-9--5-5-5-5-5-5-5-5--7-7-7-7-7-7-7-7--

a-4-4-4-4-4-4-4-4--9-9-9-9-9-9-9-9--5-5-5-5-5-5-5-5--7-7-7-7-7-7-7-7--

e-2-2-2-2-2-2-2-2--7-7-7-7-7-7-7-7--3-3-3-3-3-3-3-3--5-5-5-5-5-5-5-5--

  * * * * * * * *  * * * * * * * *  * * * * * * * *  * * * * * * * *

Chorus:

guitar.1&2

e---------------------------------------------------------------------

b---------------------------------------------------------------------

g-4-4-4-4-4-4-4-4--------------------------------------------7-7-7----

d-4-4-4-4-4-4-4-4--5-5-5-5-5-5-5-5--7-7-7-7-7-7-7-7--7-7-7-7-7-7-7----

a-2-2-2-2-2-2-2-2--5-5-5-5-5-5-5-5--7-7-7-7-7-7-7-7--7-7-7-7-5-5-5-7--

e------------------3-3-3-3-3-3-3-3--5-5-5-5-5-5-5-5--5-5-5-5-------5--

e---------------------------------------------------------------------

b---------------------------------------------------------------------

g-4-4-4-4-4-4-4-4--------------------------------------------7-7-7----

d-4-4-4-4-4-4-4-4--5-5-5-5-5-5-5-5--7-7-7-7-7-7-7-7--7-7-7-7-7-7-7-7--

a-2-2-2-2-2-2-2-2--5-5-5-5-5-5-5-5--7-7-7-7-7-7-7-7--7-7-7-7-5-5-5-7--

e------------------3-3-3-3-3-3-3-3--5-5-5-5-5-5-5-5--5-5-5-5-------5--

e---------------------------------------------------------------------

b---------------------------------------------------------------------

g-4-4-4-4-4-4-4-4--------------------------------------------7-7-7----

d-4-4-4-4-4-4-4-4--5-5-5-5-5-5-5-5--7-7-7-7-7-7-7-7--7-7-7-7-7-7-7-7--

a-2-2-2-2-2-2-2-2--5-5-5-5-5-5-5-5--7-7-7-7-7-7-7-7--7-7-7-7-5-5-5-7--

e------------------3-3-3-3-3-3-3-3--5-5-5-5-5-5-5-5--5-5-5-5-------5--

e---------------------------------------------------------------------

b---------------------------------------------------------------------

g-4-4-4-4-4-4-4-4--------------------------------------------7-7-7----

d-4-4-4-4-4-4-4-4--5-5-5-5-5-5-5-5--7-7-7-7-7-7-7-7--7-7-7-7-7-7-7-7--

a-2-2-2-2-2-2-2-2--5-5-5-5-5-5-5-5--7-7-7-7-7-7-7-7--7-7-7-7-5-5-5-7--

e------------------3-3-3-3-3-3-3-3--5-5-5-5-5-5-5-5--5-5-5-5-------5--

BRIDGE:

guitar.1

e---------------------------------------------------------------------------

b-----------------9b----------------------------------------------------------

g-----------------9h11p9h-11-11-11-11-11-11-11-11-11-11-11-11-11-11-11-11--

d-9------------------------x--x--x--x--x--x--x--x--x--x--x--x--x--x--x--x---

a-9-let ring-x4------------9--9--9--9--9--9--9--9--9--9--9--9--9--9--9--9---

e-7-------------------------------------------------------------------------

guitar.2

e--------------------------9-9-9-9-9-9-9-9-10-10-10-10-10-10-10-10--

b--------------------------7-7-7-7-7-7-7-7-7--7--7--7--7--7--7--7---

g-------------------------------------------------------------------

d-9----------9---9---9---9------------------------------------------

a-9-ring-x3-9---9---9---9-------------------------------------------

e-7--------7---7---7---7--------------------------------------------

guitar.1

e-------------------------------------------------------

b-------------------------------------------------------

g-14-14-14-14-14-14-14-14--16-16-16-16-16-16-16-16------

d-x--x--x--x--x--x--x--x---x--x--x--x--x--x--x--x---x4--

a-12-12-12-12-12-12-12-12--14-14-14-14-14-14-14-14------

e-------------------------------------------------------

guitar.2

e-7-7-7-7-7-7-7-7-9-9-9-9-9-9-9-7------

b-5-5-5-5-5-5-5-5-5-5-5-5-5-5-5-5------

g--------------------------------------

d----------------------------------x4--

a--------------------------------------

e--------------------------------------

Chorus:

guitar.1&2

e---------------------------------------------------------------------

b---------------------------------------------------------------------

g-4-4-4-4-4-4-4-4--------------------------------------------7-7-7----

d-4-4-4-4-4-4-4-4--5-5-5-5-5-5-5-5--7-7-7-7-7-7-7-7--7-7-7-7-7-7-7----

a-2-2-2-2-2-2-2-2--5-5-5-5-5-5-5-5--7-7-7-7-7-7-7-7--7-7-7-7-5-5-5-7--

e------------------3-3-3-3-3-3-3-3--5-5-5-5-5-5-5-5--5-5-5-5-------5--

e---------------------------------------------------------------------

b---------------------------------------------------------------------

g-4-4-4-4-4-4-4-4--------------------------------------------7-7-7----

d-4-4-4-4-4-4-4-4--5-5-5-5-5-5-5-5--7-7-7-7-7-7-7-7--7-7-7-7-7-7-7-7--

a-2-2-2-2-2-2-2-2--5-5-5-5-5-5-5-5--7-7-7-7-7-7-7-7--7-7-7-7-5-5-5-7--

e------------------3-3-3-3-3-3-3-3--5-5-5-5-5-5-5-5--5-5-5-5-------5--

e---------------------------------------------------------------------

b---------------------------------------------------------------------

g-4-4-4-4-4-4-4-4--------------------------------------------7-7-7----

d-4-4-4-4-4-4-4-4--5-5-5-5-5-5-5-5--7-7-7-7-7-7-7-7--7-7-7-7-7-7-7-7--

a-2-2-2-2-2-2-2-2--5-5-5-5-5-5-5-5--7-7-7-7-7-7-7-7--7-7-7-7-5-5-5-7--

e------------------3-3-3-3-3-3-3-3--5-5-5-5-5-5-5-5--5-5-5-5-------5--

e---------------------------------------------------------------------

b---------------------------------------------------------------------

g-4-4-4-4-4-4-4-4--------------------------------------------7-7-7----

d-4-4-4-4-4-4-4-4--5-5-5-5-5-5-5-5--7-7-7-7-7-7-7-7--7-7-7-7-7-7-7-7--

a-2-2-2-2-2-2-2-2--5-5-5-5-5-5-5-5--7-7-7-7-7-7-7-7--7-7-7-7-5-5-5-7--

e------------------3-3-3-3-3-3-3-3--5-5-5-5-5-5-5-5--5-5-5-5-------5--

guitar.1&2

e---------------------------------------------------------------------

b---------------------------------------------------------------------

g---------------------------------------------------------------------

d-end on -4---let ring------------------------------------------------

a---------4-----------------------------------------------------------

e---------2-----------------------------------------------------------

hope you enjoyed this tab. it really rocks.

leave a coment i you want to say someting or email

me to henk@himlen.nu.

henk

Get this song at:  amazon.com sheetmusicplus.com

Share your thoughts

0 Comments found