Eskobar

Eskobar - Someone New guitar tab

Fig.1

-----------------------------------------------------|

-----------------------------------------------------|

-----------------------------------------------------|

3---3----6-----4-3-----------------------------------|

--1---1----4--------4------4------4-------4S6--------|

--------------------------2------2------2------------|

this is played for all the verses

Fig.2

-----------------------------------------------------|

-----------------------------------------------------|

-----------------------------------------------------|

3---3----6-----4-3-----------------------------------|

--1---1----4--------6------6------6-------6----------|

--------------------------4------4------4------------|

the last time before the chorus, thers a slight change

guitar 2

when the 2nd verse starts you can here this guitar

1---------------------|

-----4---2------------|

----------------3-----|

----------------------|

----------------------|

----------------------|

verse 1

fig 1

so it s a good bye............

verse2

fig1+fig2

Chorus

D#m

you re gonna ...

F#

I realy hope you do

C# G#

Cause I love you

the riff is

A#m F#

and the road trravels on

D#m

But I m still near you

A#m F#

In my life, like a song

D#m F#

I will still hear you still

here are the chords that are used:

A#m: 688666

F#: 244322 or *91119(better)

D#m: *68876

C#: *46664

G#: 466544

transcribed by stan

if there s any problem

imightberong@hotmail.com

Get this song at:  amazon.com sheetmusicplus.com

Share your thoughts

0 Comments found