Eskobar

Eskobar - Bring The Action (Acousitc) guitar tab

Title:Bring the Acion (acoustic)

Artist:Eskobar

tab by m01!

Chords:

Gm(355333)

Csus2(x35533)

Bbsus2(x13311)

Eb(x65343)

F(133211)

1.Guitar: Tab

2.Guitar: Chords

3.Guitar: Solo

VERS

Gm

e-------------------------------------------------------|

B-------------------------------------------------------|

G--------3--2----------0-----------3--5----3--2--0------|

D-----0----------3--0----------0------------------------|

A-------------------------------------------------------|

E--3------------------------3---------------------------|

Csus2

e----------------3--------------------------------------|

B------------------3------------------------------------|

G--------5-----------5----------------------------------|

D-----5-----5-----------5-------------------------------|

A--3----------------------------------------------------|

E-------------------------------------------------------|

Gm

e-------------------------------------------------------|

B-------------------------------------------------------|

G--------3--2----------0-----------3--5----3--2--0------|

D-----0-----------3--0--------0-------------------------|

A-------------------------------------------------------|

E--3------------------------3---------------------------|

Csus2

e----------------3--------------------------------------|

B------------------3-------------3----------------------|

G--------5-----------5----------------------------------|

D-----5-----5-----------5-------------------------------|

A--3-------------------------3-3------------------------|

E-------------------------------------------------------|

repeat

PRECHORUS

Bbsus2

e-----------1------------------1------------------------|

B-----------1----------------1--------------------------|

G--------3--3---3----------3-------3--------------------|

D-----3----------------3--------------------------------|

A--1----------------1-----------------------------------|

E-------------------------------------------------------|

Csus4

e--------------------------------3----------------------|

B-----------3--------------------3----------------------|

G--------5------5----------5-----5---5------------------|

D-----5-----------------5-----5-------------------------|

A--3-----------------3----------------------------------|

E-------------------------------------------------------|

Bbsus2

e-----------1------------------1------------------------|

B-----------1----------------1--------------------------|

G--------3--3---3----------3-------3--------------------|

D-----3----------------3--------------------------------|

A--1----------------1-----------------------------------|

E-------------------------------------------------------|

Gm Csus2

e--3---3--3----3----------------------------------------|

B--3---3--3----3----------------------------------------|

G--3---3--3----5----------------------------------------|

D--5---5--5----5----------------------------------------|

A--5-----------3----------------------------------------|

E--3----------------------------------------------------|

repeat VERS and PRECHORUS

CHORUS(only Chords)

Gm-Eb-Bsus2-Bsus2-Gm-Eb-Bsus2-F

SOLOGUITAR + CHORDS

Gm Csus2

e--------------------------3----------------------------|

B----------------3---1*----3---------3------------------|

G--3*--0----0-0------------5------5---------------------|

D--------------------------5------------5---------------|

A-------------------------------------------------------|

E-------------------------------------------------------|

+ Vers

Gm Csus2

e-------------------------------------------------------|

B-----------3-------3---1*----------3--------3----------|

G--3*--0--0----0-0------------5-----------5-----5-------|

D--------------------------------5-----5-----------5----|

A-------------------------------------------------------|

E-------------------------------------------------------|

Gm Csus2

e-----------------------------------3-------------------|

B----------3--3--3--1*--------3--------3------3---------|

G--3*--0-------------------5-----5----------5----5------|

D-----------------------------------------5---------5---|

A-------------------------------------------------------|

E-------------------------------------------------------|

Gm Csus2

e------------------------------3------------------------|

B-----3*----3--1*--------------3------------------------|

G------------------------5-----5------------------------|

D---------------------------5--5------------------------|

A------------------------------3------------------------|

E-------------------------------------------------------|

Chorus (2x)

Sologuitar(repeat again and again)

e-------------------------------------------------------|

B----3--1-----------------------------------------------|

G--0-------3--------------------------------------------|

D-------------------------------------------------------|

A-------------------------------------------------------|

E-------------------------------------------------------|

ENJOY!

Get this song at:  amazon.com sheetmusicplus.com

Share your thoughts

0 Comments found