Eskobar

Eskobar - Art Of Letting Go guitar tab

Capo on first fret.

#1 | #2 | #3 | #4 |

Em, D/F#, G | C | C/B | Am |

E|--------4--3---------|--------4-|--------3-|---------1-|

B|------1------4--1--1-|------2---|----------|-----------|

G|----1----------------|----------|------3---|-------1---|

D|---------------------|----------|----------|-----------|

A|---------------------|--3h4-----|--1h3-----|----1------|

E|--1------------------|----------|----------|--4--------|

#5 | #6 | #7 | #8 |

C | Am | Em | D |

E|--1-|--1-|--1-|--3-|

B|--2-|--2-|--1-|--4-|

G|--1-|--3-|--1-|--3-|

D|--3-|--3-|--3-|--1-|

A|--4-|--1-|--3-|----|

E|----|----|--1-|----|

00:00:

Well it`s the art of letting go

I don`t really think I know

But I have to find a place to rest

#1

Em, D/F#, G

Right now

#1

Em, D/F#, G

00:23:

#1

Em D/F# G

It is tearin me apart

#1

Em D/F# G

and its a, no good mode for my heart

#2 #3 #4

C C/B Am

please tell me and I`ll step away

#1

Em, D/F#, G

Right now

00:40:

#5 #6

C Am

Cause what you`ve said, and what you`ve done,

#7 #8

Em D

they don`t match so I`m confused

#5 #6 #7 #8

C Am Em D

And all this time, when you`ve been gone, I feel my hope has been abused

#5 #6 #7 #8

C Am Em D

Cause now you`re back, I see the truth, and now I know that I`ve been used

#5 #6 #7

C Am Em

I find it cold, I find it cruel, that`s who you are

01:16:

#1

Em, D/F#, G

#1

Em, D/F#, G

01:24:

Well it’s the art of letting go

I really wish I’d known

Cause being a puppet on a string

Is no good

01:41:

Cause what you said, and what you did, they wouldn’t match so I’s confused

And all that time, when you were gone, I felt my hope had been abused

Cause you came back, I saw the truth, and then I knew that I’d been used

I find it cold, I find it cruel, that’s who you are

Solo 02:17:

E|---------------------------------------------------------|

B|--1---1---4---1------1-4-6-8/9---8-6-4-------------------|

G|--------3---3------3-------------------5-3-1-3-5-3-1-----|

D|----3------------------------------------------------5-1-|

A|---------------------------------------------------------|

E|---------------------------------------------------------|

E|--------4-----------3-----------------------------4------11---8-|

B|------6-----------4----4-4p1----1-----------------4------11---9-|

G|----5-----5-----3-------------3-----1-----------1-1------8----8-|

D|--3-----------1-----------------------5-3---5-------------------|

A|-------------------------------------------------------11-------|

E|----------------------------------------------------------------|

E|--4p3h4----11---11--11--11--------3----4------11----8-|

B|--------/13---11---9---8---6/2p1--4-4--4------11-11-9-|

G|----------------------------------3----1------8-----8-|

D|------------------------------------------------------|

A|------------------------------------------------------|

E|------------------------------------------------------|

02:51:

#2 #3 #4

C C/B Am

And I had to find a place to rest

#2 #3 #4

C C/B Am

Yeah I had to find a place to rest

#2 #3 #4

C C/B Am

Oh yes I had to find a place to rest

#1

Em, D/F#, G

right there

03:07:

Cause what you said, and what you did, they wouldn’t match so I’s confused

And all that time, when you were gone, I felt my hope had been abused

Cause now you came back, I saw the truth, and then I knew that I’d been used

I find it cold, I find it cruel, that’s who you are

Added by tabs-database.com and our distinguished partners

Get this song at:  amazon.com sheetmusicplus.com

Share your thoughts

0 Comments found