Ernest Tubb

Ernest Tubb - Thanks A Lot lead guitar tab

THANKS A LOT

Guitarist: Pete Mitchell

KEY: G

INTRO:

N/C G C

E---------------3--5/7--5/7-----------------------------------------

B-1/3--3--3--5-----------------7/8-8-8-8-8-8-8-8-8b--5--------------

G-------------------------------------------------------------------

D-------------------------------------------------------------------

A-------------------------------------------------------------------

E-------------------------------------------------------------------

C G D G

E-------------------------------------------------------------3-----

B-7/8-8-8-8-8-8-8-8-8b--3---------3-------------------3-5p3---------

G----------------------------2/4-----3--2--0----0-2-4-------4-------

D-------------------------------------------------------------------

A-------------------------------------------------------------------

E-------------------------------------------------------------------

SOLO:

G Em

E-------------------------------------------------------------------

B--------------------------3--3/5--3/5------------------------------

G------------0----0--0--4-------------------------------------------

D-0-0--2--4---------------------------------------------------------

A-------------------------------------------------------------------

E-------------------------------------------------------------------

Em G Em

E---------------3--5/7--5/7-----------------------------------------

B-1/3--3-3--5------------------8-7-8--7h8p7--5--4/5-----------------

G-------------------------------------------------------------------

D-------------------------------------------------------------------

A-------------------------------------------------------------------

E-------------------------------------------------------------------

Em G C

E---------------3--5/7--5/7-----------------------------------------

B-1/3--3--3--5-----------------7/8-8-8-8-8-8-8-8-8b--5--------------

G-------------------------------------------------------------------

D-------------------------------------------------------------------

A-------------------------------------------------------------------

E-------------------------------------------------------------------

C G D G

E-------------------------------------------------------------3-----

B-7/8-8-8-8-8-8-8-8-8b--3---------3-------------------3-5p3---------

G----------------------------2/4-----3--2--0----0-2-4-------4-------

D-------------------------------------------------------------------

A-------------------------------------------------------------------

E-------------------------------------------------------------------

Get this song at:  amazon.com sheetmusicplus.com

Share your thoughts

0 Comments found