Erik Truffaz

Erik Truffaz - Yuris Choice Bass guitar tab

-------------------------------------------------------------------------------

Yuri's Choice - Erik Truffaz

-------------------------------------------------------------------------------

Bass tab Tabbed by: yo

Email:webmaster at tabs-database.com.com

Tuning: standard EADG

sounds pretty close to me. there are some notes here and there that i didnt tab coz im

lazy but they arent so loud so...hell with them.

For part B the number of notes are just an indication, i didnt count them carefully.

if you spot any mistakes please email me or leave a comment :)

enjoy the groove ;)

Intro

G|------12-------------------|

D|---------12------0---------|

A|------------8--------------|

E|-0-------------------------|

Verse

G|--------------------------------|

D|--------------------------------|

A|-----5h7--------8----5----------|

E|-0-7-----7-0--8----5------------|

Part A

G|-------------------------|

D|-------------------------|

A|-2-----------------------|

E|----0--------------------|

Part B

G|------------------------------------|

D|---------------------------4--------|

A|----------------------2--2---2------|

E|-0.--0-0-0-3-3-3--0-0---------------|

Bridge

G|--------------------------------------------------------------------------------|

D|-------------6/------------------12----11b12r11b12-(sounds like a wide vibrato)-|

A|--------7-10------------7-10--10>---10.-----------------------------------------|

E|-0-7-10----------0-7-10---------------------------------------------------------|

back to intro riff

then verse

then end on this riff

G|---12------12-------------------------|

D|------12------12----------------------|

A|---------------------etc...-----------|

E|-0-------0-------0--------------------|

| r release bend

| b bend to

| > staccato

| . hold note

| / slide up

| \\ slide down

| h hammer-on

| p pull-off

| ~ vibrato

| + harmonic

| x Mute note

===============================================================================Added by tabs-database.com and our distinguished partners

Get this song at:  amazon.com sheetmusicplus.com

Share your thoughts

0 Comments found