Ensiferum

Tale Of Revenge Tabs



More from Ensiferum

Ensiferum Tabs
Ensiferum Lyrics

Tale Of Revenge                                 


                                                                       Ensiferum
Lead



                                                          
E||----------------------------|-------------------------|
B||----------------------------|-------------------------|
G||--10----10--10--10--9--7----|--9----9--9--9--7--------|
D||----------------------------|-------------------10----|
A||----------------------------|-------------------------|
E||----------------------------|-------------------------|


                                                                        
-------------------------|-------------------|-------------------------|
-------------------------|-------------------|-------------------------|
--7----7--7--7--9--10----|-------------------|--7----7--7--7--9--10----|
-------------------------|--7~---------------|-------------------------|
-------------------------|-------------------|-------------------------|
-------------------------|-------------------|-------------------------|


                                                                  
--------------------|------------------------|-------------------|
--------------------|------------------------|-------------------|
--7~----------------|------------------------|--7~---------------|
-----------8--------|--7--------10----7--10--|-------------------|
--------------------|------------------------|-------------------|
--------------------|------------------------|-------------------|


                                                       
----------------------------|-------------------------|
----------------------------|-------------------------|
--10----10--10--10--9--7----|--9----9--9--9--7--------|
----------------------------|-------------------10----|
----------------------------|-------------------------|
----------------------------|-------------------------|


                                                                        
-------------------------|-------------------|-------------------------|
-------------------------|-------------------|-------------------------|
--7----7--7--7------7----|-------------------|--7----7--7--7--9--10----|
----------------10-------|--7~---------------|-------------------------|
-------------------------|-------------------|-------------------------|
-------------------------|-------------------|-------------------------|


                                                                  
--------------------|------------------------|-------------------|
--------------------|------------------------|-------------------|
--7~----------------|------------------------|--7~---------------|
-----------8--------|--7--------10----7--10--|-------------------|
--------------------|------------------------|-------------------|
--------------------|------------------------|-------------------|


                                                       
----------------------------|-------------------------|
----------------------------|-------------------------|
--10----10--10--10--9--7----|--9----9-----9--10--9----|
----------------------------|----------7--------------|
----------------------------|-------------------------|
----------------------------|-------------------------|


                                                                         
-------------------------|--------------------|-------------------------|
-------------------------|--------------------|-------------------------|
--7----7--7--7------7----|--------------------|--7----7--7--7--9--10----|
----------------10-------|--7~-------7~-------|-------------------------|
-------------------------|--------------------|-------------------------|
-------------------------|--------------------|-------------------------|


                                                                  
--------------------|------------------------|-------------------|
--------------------|------------------------|-------------------|
--7~----------------|------------------------|--7~---------------|
-----------8--------|--7--------10----7--10--|-------------------|
--------------------|------------------------|-------------------|
--------------------|------------------------|-------------------|


                                                       
----------------------------|-------------------------|
----------------------------|-------------------------|
--10----10--10--10--9--7----|--9----9--9--9--7--------|
----------------------------|-------------------10----|
----------------------------|-------------------------|
----------------------------|-------------------------|


                                                                         
-------------------------|--------------------|-------------------------|
-------------------------|--------------------|-------------------------|
--7----7--7--7--9--10----|--------------------|--7----7--7--7--9--10----|
-------------------------|--7~-------7~-------|-------------------------|
-------------------------|--------------------|-------------------------|
-------------------------|--------------------|-------------------------|


                                                                  
--------------------|------------------------|-------------------|
--------------------|------------------------|-------------------|
--7~----------------|------------------------|--7~---------------|
-----------8--------|--7--------10----7--10--|-------------------|
--------------------|------------------------|-------------------|
--------------------|------------------------|-------------------|


                                                                       
-----------------------|-------------------------|--------------------|
-----------10------10--|--10--8--6--8--10~-------|--5--------8--------|
--7--------------------|-------------------------|--------------------|
-----------------------|-------------------------|--------------------|
-----------------------|-------------------------|--------------------|
-----------------------|-------------------------|--------------------|


                                                                
----------------------|-------------------|--------------------|
--6--5-------5--------|-------------------|--5--------8--------|
--------7-------------|----------5--------|--------------------|
----------------------|-------------------|--------------------|
----------------------|-------------------|--------------------|
----------------------|-------------------|--------------------|


                                                                         
----------------------|-----------------------|-------------------------|
--6--------5----------|-----------10------10--|--10--8--6--8--10~-------|
--------------7--5----|--7--------------------|-------------------------|
----------------------|-----------------------|-------------------------|
----------------------|-----------------------|-------------------------|
----------------------|-----------------------|-------------------------|


                                                                
--------------------|----------------------|-------------------|
--5--------8--------|--6--5-------5--------|-------------------|
--------------------|--------7-------------|----------5--------|
--------------------|----------------------|-------------------|
--------------------|----------------------|-------------------|
--------------------|----------------------|-------------------|


                                                                    
--------------------|----------------------|-----------------------|
--5--------8--------|--6--------5----------|-----------10------10--|
--------------------|--------------7--5----|--7--------------------|
--------------------|----------------------|-----------------------|
--------------------|----------------------|-----------------------|
--------------------|----------------------|-----------------------|


                                                                      
-------------------------|--------------------|----------------------|
--10--8--6--8--10~-------|--5--------8--------|--6--5-------5--------|
-------------------------|--------------------|--------7-------------|
-------------------------|--------------------|----------------------|
-------------------------|--------------------|----------------------|
-------------------------|--------------------|----------------------|


                                                                
-------------------|--------------------|----------------------|
-------------------|--5--------8--------|--6--------5----------|
----------5--------|--------------------|--------------7--5----|
-------------------|--------------------|----------------------|
-------------------|--------------------|----------------------|
-------------------|--------------------|----------------------|


                                                                       
-----------------------|-------------------------|--------------------|
-----------10------10--|--10--8--6--8--10~-------|--5--------8--------|
--7--------------------|-------------------------|--------------------|
-----------------------|-------------------------|--------------------|
-----------------------|-------------------------|--------------------|
-----------------------|-------------------------|--------------------|


                                                                
----------------------|-------------------|--------------------|
--6--5-------5--------|-------------------|--5--------8--------|
--------7-------------|----------5--------|--------------------|
----------------------|-------------------|--------------------|
----------------------|-------------------|--------------------|
----------------------|-------------------|--------------------|


                                                                             
----------------------|-----------|
--6--------5----------|-----------|
--------------7--5----|--7--------|
----------------------|-----------|
----------------------|-----------|
----------------------|-----------|


                                                                       
-----------------------|-------------------------|--------------------|
-----------10------10--|--10--8--6--8--10~-------|--5--------8--------|
--7--------------------|-------------------------|--------------------|
-----------------------|-------------------------|--------------------|
-----------------------|-------------------------|--------------------|
-----------------------|-------------------------|--------------------|


                                                                
----------------------|-------------------|--------------------|
--6--5-------5--------|-------------------|--5--------8--------|
--------7-------------|----------5--------|--------------------|
----------------------|-------------------|--------------------|
----------------------|-------------------|--------------------|
----------------------|-------------------|--------------------|


                                                                         
----------------------|-----------------------|-------------------------|
--6--------5----------|-----------10------10--|--10--8--6--8--10~-------|
--------------7--5----|--7--------------------|-------------------------|
----------------------|-----------------------|-------------------------|
----------------------|-----------------------|-------------------------|
----------------------|-----------------------|-------------------------|


                                                                
--------------------|----------------------|-------------------|
--5--------8--------|--6--5-------5--------|-------------------|
--------------------|--------7-------------|----------5--------|
--------------------|----------------------|-------------------|
--------------------|----------------------|-------------------|
--------------------|----------------------|-------------------|


                                                                         
--------------------|--------------------|----------------12----12--12--|
--5--------8--------|--6--------8--------|--10----10--10----------------|
--------------------|--------------------|------------------------------|
--------------------|--------------------|------------------------------|
--------------------|--------------------|------------------------------|
--------------------|--------------------|------------------------------|


                                                                                
--12--10--8--10--12~-------|--7----7--7--10----10--10--|--8--7--------7~-------|
---------------------------|---------------------------|--------10-------------|
---------------------------|---------------------------|-----------------------|
---------------------------|---------------------------|-----------------------|
---------------------------|---------------------------|-----------------------|
---------------------------|---------------------------|-----------------------|


                                                                               
--7----7--7-------------|--7----7--7--10----10--10--|--8----8--8--7-----------|
-------------8----8--8--|---------------------------|----------------10--8----|
------------------------|---------------------------|-------------------------|
------------------------|---------------------------|-------------------------|
------------------------|---------------------------|-------------------------|
------------------------|---------------------------|-------------------------|


                                                           
----------------12----12--12--|--12--10--8--10--12~-------|
--10----10--10----------------|---------------------------|
------------------------------|---------------------------|
------------------------------|---------------------------|
------------------------------|---------------------------|
------------------------------|---------------------------|


                                                                             
--7----7--7--10----10--10--|--8--7--------7~-------|--7----7--7-------------|
---------------------------|--------10-------------|-------------8----8--8--|
---------------------------|-----------------------|------------------------|
---------------------------|-----------------------|------------------------|
---------------------------|-----------------------|------------------------|
---------------------------|-----------------------|------------------------|


                                                                          
--7----7--7--10----10--10--|--8----8--8--7-----------|------------|------|
---------------------------|----------------10--8----|--10~-------|------|
---------------------------|-------------------------|------------|------|
---------------------------|-------------------------|------------|------|
---------------------------|-------------------------|------------|------|
---------------------------|-------------------------|------------|------|


                                                                             
------|------|------|------|------|------|------|------|------|------|------|
------|------|------|------|------|------|------|------|------|------|------|
------|------|------|------|------|------|------|------|------|------|------|
------|------|------|------|------|------|------|------|------|------|------|
------|------|------|------|------|------|------|------|------|------|------|
------|------|------|------|------|------|------|------|------|------|------|


                                                         
------|------|------|------|----------------------------|
------|------|------|------|--10----10--10--10--8--6----|
------|------|------|------|----------------------------|
------|------|------|------|----------------------------|
------|------|------|------|----------------------------|
------|------|------|------|----------------------------|


                                                                      
------------------------|-------------------5----|-------------------|
--8----8--8--8--6--5----|--6----6--6--6--8-------|--5~---------------|
------------------------|------------------------|-------------------|
------------------------|------------------------|-------------------|
------------------------|------------------------|-------------------|
------------------------|------------------------|-------------------|


                                                                       
-------------------5----|----------------------|----------------------|
--6----6--6--6--8-------|--6~-------3----6--5--|--6--------5----6--5--|
------------------------|----------------------|----------------------|
------------------------|----------------------|----------------------|
------------------------|----------------------|----------------------|
------------------------|----------------------|----------------------|


                                                                            
-------------------|------------------------------|------------------------|
--3~---------------|--10----10--10--10--8--6--10--|--8----8--8--8--6--5----|
-------------------|------------------------------|------------------------|
-------------------|------------------------------|------------------------|
-------------------|------------------------------|------------------------|
-------------------|------------------------------|------------------------|


                                                                         
-------------------5-----|---------------------|-------------------5----|
--6----6--6--6--8-----6--|--5~---------3--5----|--6----6--6--6--8-------|
-------------------------|---------------------|------------------------|
-------------------------|---------------------|------------------------|
-------------------------|---------------------|------------------------|
-------------------------|---------------------|------------------------|


                                                              
--------------------|--------------------|-------------------|
--6~-------3--------|--6~-------5~-------|--3~---------------|
--------------------|--------------------|-------------------|
--------------------|--------------------|-------------------|
--------------------|--------------------|-------------------|
--------------------|--------------------|-------------------|


                                                                               
----------------------------|------------------------|-------------------5----|
--10----10--10--10--8--6----|--8----8--8--8--6--5----|--6----6--6--6--8-------|
----------------------------|------------------------|------------------------|
----------------------------|------------------------|------------------------|
----------------------------|------------------------|------------------------|
----------------------------|------------------------|------------------------|


                                                                   
-------------------|-------------------5----|--6~-----------5-----|
--5~---------------|--6----6--6--6--8-------|------------------8--|
-------------------|------------------------|---------------------|
-------------------|------------------------|---------------------|
-------------------|------------------------|---------------------|
-------------------|------------------------|---------------------|


                                                                          
--5-------------5-----|-------------------|------------------------------|
-----------8-------8--|--6~---------------|--10----10--10--10--8--6--10--|
----------------------|-------------------|------------------------------|
----------------------|-------------------|------------------------------|
----------------------|-------------------|------------------------------|
----------------------|-------------------|------------------------------|


                                                                         
------------------------|-------------------5-----|---------------------|
--8----8--8--8--6--5----|--6----6--6--6--8-----6--|--5~---------3--5----|
------------------------|-------------------------|---------------------|
------------------------|-------------------------|---------------------|
------------------------|-------------------------|---------------------|
------------------------|-------------------------|---------------------|


                                                                   
-------------------5----|--------------------|--------------------|
--6----6--6--6--8-------|--6~-------3--------|--6~-------5~-------|
------------------------|--------------------|--------------------|
------------------------|--------------------|--------------------|
------------------------|--------------------|--------------------|
------------------------|--------------------|--------------------|


                                                                             
-------------------|
--3~---------------|
-------------------|
-------------------|
-------------------|
-------------------|

                                                                         
------------------|----------------------------|------------------------|
------------------|--10----10--10--10--8--6----|--8----8--8--8--6--5----|
------------------|----------------------------|------------------------|
------------------|----------------------------|------------------------|
------------------|----------------------------|------------------------|
------------------|----------------------------|------------------------|


                                                                      
-------------------5----|-------------------|-------------------5----|
--6----6--6--6--8-------|--5~---------------|--6----6--6--6--8-------|
------------------------|-------------------|------------------------|
------------------------|-------------------|------------------------|
------------------------|-------------------|------------------------|
------------------------|-------------------|------------------------|


                                                                  
----------------------|----------------------|-------------------|
--6~-------3----6--5--|--6--------5----6--5--|--3~---------------|
----------------------|----------------------|-------------------|
----------------------|----------------------|-------------------|
----------------------|----------------------|-------------------|
----------------------|----------------------|-------------------|


                                                        
------------------------------|------------------------|
--10----10--10--10--8--6--10--|--8----8--8--8--6--5----|
------------------------------|------------------------|
------------------------------|------------------------|
------------------------------|------------------------|
------------------------------|------------------------|


                                                                         
-------------------5-----|---------------------|-------------------5----|
--6----6--6--6--8-----6--|--5~---------3--5----|--6----6--6--6--8-------|
-------------------------|---------------------|------------------------|
-------------------------|---------------------|------------------------|
-------------------------|---------------------|------------------------|
-------------------------|---------------------|------------------------|


                                                              
--------------------|--------------------|-------------------|
--6~-------3--------|--6~-------5~-------|--3~---------------|
--------------------|--------------------|-------------------|
--------------------|--------------------|-------------------|
--------------------|--------------------|-------------------|
--------------------|--------------------|-------------------|


                                                                               
----------------------------|------------------------|-------------------5----|
--10----10--10--10--8--6----|--8----8--8--8--6--5----|--6----6--6--6--8-------|
----------------------------|------------------------|------------------------|
----------------------------|------------------------|------------------------|
----------------------------|------------------------|------------------------|
----------------------------|------------------------|------------------------|


                                                                   
-------------------|-------------------5----|--6~-----------5-----|
--5~---------------|--6----6--6--6--8-------|------------------8--|
-------------------|------------------------|---------------------|
-------------------|------------------------|---------------------|
-------------------|------------------------|---------------------|
-------------------|------------------------|---------------------|


                                                                          
--5-------------5-----|-------------------|------------------------------|
-----------8-------8--|--6~---------------|--10----10--10--10--8--6--10--|
----------------------|-------------------|------------------------------|
----------------------|-------------------|------------------------------|
----------------------|-------------------|------------------------------|
----------------------|-------------------|------------------------------|


                                                                         
------------------------|-------------------5-----|---------------------|
--8----8--8--8--6--5----|--6----6--6--6--8-----6--|--5~---------3--5----|
------------------------|-------------------------|---------------------|
------------------------|-------------------------|---------------------|
------------------------|-------------------------|---------------------|
------------------------|-------------------------|---------------------|


                                                                       
-------------------5----|----------------------|----------------------|
--6----6--6--6--8-------|--6~-------3----6--5--|--6--------5----6--5--|
------------------------|----------------------|----------------------|
------------------------|----------------------|----------------------|
------------------------|----------------------|----------------------|
------------------------|----------------------|----------------------|


                                        
-------------------|------------------||
--3~---------------|------------------||
-------------------|------------------||
-------------------|------------------||
-------------------|------------------||
-------------------|------------------||


                               Tale Of Revenge                                 


                                                                       Ensiferum
Rhythm



                                                                 
E||-------------------|-------------------|---------------------|
B||-------------------|-------------------|---------------------|
G||--7----------------|-------------------|--3------------------|
D||--7----------------|--7----------------|--3------------------|
A||--5----------------|--7----------------|--1------------1--1--|
E||-------------------|--5----------------|---------------------|


                                                                
---------------------|-------------------|---------------------|
---------------------|-------------------|---------------------|
---------------------|--7----------------|--3------------------|
--3------------------|--7----------------|--3------------------|
--3------------------|--5----------------|--1------------1--1--|
--1------------1--1--|-------------------|---------------------|


                                                                 
----------------------|---------------------|-------------------|
----------------------|---------------------|-------------------|
----------------------|--7------------------|--7----------------|
--3--------7----------|--7------------------|--7----------------|
--3--------7----------|--5------------5--5--|--5----------------|
--1--------5----5--5--|---------------------|-------------------|


                                                                
-------------------|---------------------|---------------------|
-------------------|---------------------|---------------------|
-------------------|--3------------------|---------------------|
--7----------------|--3------------------|--3------------------|
--7----------------|--1------------1--1--|--3------------------|
--5----------------|---------------------|--1------------1--1--|


                                                                 
-------------------|---------------------|----------------------|
-------------------|---------------------|----------------------|
--7----------------|--3------------------|----------------------|
--7----------------|--3------------------|--3--------7----------|
--5----------------|--1------------1--1--|--3--------7----------|
-------------------|---------------------|--1--------5----5--5--|


                                                                        
---------------------|------------------------|------------------------|
---------------------|------------------------|------------------------|
--7------------------|--7---------------------|------------------------|
--7--------12/-------|--7---------------------|--7---------------------|
--5--------12/-------|--5----5--5--5----5--5--|--7---------------------|
---------------------|------------------------|--5----5--5--5----5--5--|


                                                                        
------------------------|---------------------|------------------------|
------------------------|---------------------|------------------------|
--3---------------------|---------------------|--7---------------------|
--3---------------------|--3------------------|--7---------------------|
--1----1--1--1--1--1----|--3------------------|--5----5--5--5----5--5--|
------------------------|--1------------1--1--|------------------------|


                                                                   
---------------------|----------------------|---------------------|
---------------------|----------------------|---------------------|
--3------------------|----------------------|--7------------------|
--3------------------|--3--------7----------|--7------------------|
--1------------1--1--|--3--------7----------|--5------------5--5--|
---------------------|--1--------5----5--5--|---------------------|


                                                                           
------------------------|------------------------|------------------------|
------------------------|------------------------|------------------------|
--7---------------------|------------------------|--3---------------------|
--7---------------------|--7---------------------|--3---------------------|
--5----5--5--5----5--5--|--7---------------------|--1----1--1--1--1--1----|
------------------------|--5----5--5--5----5--5--|------------------------|


                                                                     
---------------------|------------------------|---------------------|
---------------------|------------------------|---------------------|
---------------------|--7---------------------|--3------------------|
--3------------------|--7---------------------|--3------------------|
--3------------------|--5----5--5--5----5--5--|--1------------1--1--|
--1------------1--1--|------------------------|---------------------|


                                                                 
----------------------|-------------------|---------------------|
----------------------|-------------------|---------------------|
----------------------|--7----------------|---------------------|
--3--------7----------|--7----------------|---------------------|
--3--------7----------|--5----------------|--5--5--5------------|
--1--------5----5--5--|-------------------|---------------------|


                                                                      
------------------|-------------------------|------------------------|
------------------|--10---------------------|------------------------|
------------------|--9-----------5----------|--------3---------------|
------------------|--7-----7--7--5----------|--------3---------------|
------------------|--------------3----3--3--|--1--1--1----3--3--3----|
------------------|-------------------------|------------------------|


                                                                  
------------------|---------------------|------------------------|
------------------|----------8----------|------------------------|
------------------|----------7----------|--7---------------------|
------------------|----------5----5--5--|--7----------------7----|
------------------|---------------------|--5----5--5--------7----|
------------------|---------------------|-------------5--5--5----|


                                                                   
---------------------|------------------|-------------------------|
---------------------|------------------|--10---------------------|
---------------------|------------------|--9-----------5----------|
---------------------|------------------|--7-----7--7--5----------|
--5--5--5------------|------------------|--------------3----3--3--|
---------------------|------------------|-------------------------|


                                                                
------------------------|------------------|-------------------|
------------------------|------------------|-------------------|
--------3---------------|------------------|-------------------|
--------3---------------|------------------|----------5--------|
--1--1--1----0--0--0----|------------------|----------5--------|
------------------------|------------------|----------3--------|


                                                                           
------------------------|------------------------|------------------------|
------------------------|------------------------|------------------------|
--7---------------------|--7---------------------|-------------7----------|
--7----------------7----|--7---------------------|-------------7----------|
--5----5--5--------7----|--5----5--5--5----5--5--|--5--5--5----5----5--5--|
-------------5--5--5----|------------------------|------------------------|


                                                                            
-------------------------|------------------------|------------------------|
--10---------------------|------------------------|------------------------|
--9-----------5----------|--------3----5----------|------------------------|
--7-----7--7--5----------|--------3----5----------|------------------------|
--------------3----3--3--|--1--1--1----3----3--3--|--3----3--3--3--3--3----|
-------------------------|------------------------|------------------------|


                                                                           
------------------------|------------------------|------------------------|
-------------8----------|------------------------|------------------------|
--5----------7----------|--7---------------------|--7---------------------|
--5----------5----5--5--|--7----------------7----|--7---------------------|
--3----3--3-------------|--5----5--5--------7----|--5----5--5--5----5--5--|
------------------------|-------------5--5--5----|------------------------|


                                                                            
------------------------|-------------------------|------------------------|
------------------------|--10---------------------|------------------------|
-------------7----------|--9-----------5----------|--------3----2----------|
-------------7----------|--7-----7--7--5----------|--------3----2----------|
--5--5--5----5----5--5--|--------------3----3--3--|--1--1--1----0----0--0--|
------------------------|-------------------------|------------------------|


                                                                           
------------------------|------------------------|------------------------|
------------------------|-------------8----------|------------------------|
------------------------|--2----------7----------|--7---------------------|
------------------------|--2----------5----5--5--|--7----------------7----|
--0----0--0--0--0--0----|--0----0--0-------------|--5----5--5--------7----|
------------------------|------------------------|-------------5--5--5----|


                                                                
-------------|------------------------|------------------------|
-------------|-------------6----------|-------------5----------|
--7----------|-------------7----------|-------------5----------|
--7----------|-------------7----------|-------------5----------|
--5----5--5--|--5----5--5-------5--5--|--3----3--3-------3--3--|
-------------|------------------------|------------------------|


                                                                         
-----------------------|-----------------------|------------------------|
-----------------------|-----------------------|-------------5----------|
-----------------------|-----------------------|-------------5----------|
--3----2----3----------|-----------------------|-------------7----------|
--1----0----1----1--1--|--3----2----3----------|-------------7----------|
-----------------------|--1----0----1----1--1--|--5----5--5-------5--5--|


                                                                     
-----------------------|-----------------------|--------------------|
-----------------------|-----------------------|--------------------|
-----------------------|-----------------------|--5--------5--------|
--7----5----7----------|-----------------------|--5--------5--------|
--5----3----5----5--5--|--3----2----3----------|--3--------3--------|
-----------------------|--1----0----1----1--1--|--------------------|


                                                                          
------------------------|------------------------|-----------------------|
-------------6----------|-------------5----------|-----------------------|
-------------7----------|-------------5----------|-----------------------|
-------------7----------|-------------5----------|--3----2----3----------|
--5----5--5-------5--5--|--3----3--3-------3--3--|--1----0----1----1--1--|
------------------------|------------------------|-----------------------|


                                                                         
-----------------------|------------------------|-----------------------|
-----------------------|-------------5----------|-----------------------|
-----------------------|-------------5----------|-----------------------|
-----------------------|-------------7----------|--7----5----7----------|
--3----2----3----------|-------------7----------|--5----3----5----5--5--|
--1----0----1----1--1--|--5----5--5-------5--5--|-----------------------|


                                                                          
--------------------|-------------------|----------|---------------------|
--------------------|-------------------|----------|---------------------|
-----------7--------|-------------------|----------|---------------------|
--3--------7--------|--7----------------|----------|---------------------|
--3--------5--------|--7----------------|----------|--5--5--5------------|
--1-----------------|--5----------------|----------|---------------------|


                                                                      
------------------|-------------------------|------------------------|
------------------|--10---------------------|------------------------|
------------------|--9-----------5----------|--------3---------------|
------------------|--7-----7--7--5----------|--------3---------------|
------------------|--------------3----3--3--|--1--1--1----3--3--3----|
------------------|-------------------------|------------------------|


                                                                  
------------------|---------------------|------------------------|
------------------|----------8----------|------------------------|
------------------|----------7----------|--7---------------------|
------------------|----------5----5--5--|--7----------------7----|
------------------|---------------------|--5----5--5--------7----|
------------------|---------------------|-------------5--5--5----|


                                                                   
---------------------|------------------|-------------------------|
---------------------|------------------|--10---------------------|
---------------------|------------------|--9-----------5----------|
---------------------|------------------|--7-----7--7--5----------|
--5--5--5------------|------------------|--------------3----3--3--|
---------------------|------------------|-------------------------|


                                                                
------------------------|------------------|-------------------|
------------------------|------------------|-------------------|
--------3---------------|------------------|----------5--------|
--------3---------------|------------------|----------5--------|
--1--1--1----0--0--0----|------------------|----------3--------|
------------------------|------------------|-------------------|


                                                                       
--------------------|------------------------|------------------------|
--------------------|------------------------|------------------------|
--------------------|------------------------|------------------------|
--3--------5--------|--7---------------------|-------------7----------|
--3--------5--------|--7---------------------|-------------7----------|
--1--------3--------|--5----5--5--5----5--5--|--5--5--5----5----5--5--|


                                                                           
------------------------|------------------------|------------------------|
------------------------|------------------------|------------------------|
--9---------------------|------------------------|------------------------|
--9----------5----------|--------3----5----------|------------------------|
--7----7--7--5----------|--------3----5----------|------------------------|
-------------3----3--3--|--1--1--1----3----3--3--|--3----3--3--3--3--3----|


                                                                           
------------------------|------------------------|------------------------|
------------------------|------------------------|------------------------|
-------------7----------|-------------------9----|------------------------|
--5----------7----------|--7----------------9----|--7---------------------|
--5----------5----5--5--|--7----------7--7--7----|--7---------------------|
--3----3--3-------------|--5----5--5-------------|--5----5--5--5----5--5--|


                                                                           
------------------------|------------------------|------------------------|
------------------------|------------------------|------------------------|
------------------------|--9---------------------|------------------------|
-------------7----------|--9----------5----------|--------3----2----------|
-------------7----------|--7----7--7--5----------|--------3----2----------|
--5--5--5----5----5--5--|-------------3----3--3--|--1--1--1----0----0--0--|


                                                                           
------------------------|------------------------|------------------------|
------------------------|------------------------|------------------------|
------------------------|-------------7----------|-------------------9----|
------------------------|--2----------7----------|--7----------------9----|
------------------------|--2----------5----5--5--|--7----------7--7--7----|
--0----0--0--0--0--0----|--0----0--0-------------|--5----5--5-------------|


                                                                      
-----------|----------------------------|----------------------------|
-----------|---------------6------------|---------------5------------|
-----------|---------------7------------|---------------5------------|
--7--------|---------------7------------|---------------5------------|
--7--------|--5----5-5-5-5------5-5-5-5-|--3----3-3-3-3------3-3-3-3-|
--5--------|----------------------------|----------------------------|


                                                    
-------------------------|-------------------------|
-------------------------|-------------------------|
-------------------------|-------------------------|
--3----2----3------------|-------------------------|
--1----0----1----1-1-1-1-|--3----2----3------------|
-------------------------|--1----0----1----1-1-1-1-|


                                                       
----------------------------|-------------------------|
---------------5------------|-------------------------|
---------------5------------|-------------------------|
---------------7------------|--7----5----7------------|
---------------7------------|--5----3----5----5-5-5-5-|
--5----5-5-5-5------5-5-5-5-|-------------------------|


                                                                            
-------------------------|--------------------|----------------------------|
-------------------------|--------------------|---------------6------------|
-------------------------|--5--------5--------|---------------7------------|
-------------------------|--5--------5--------|---------------7------------|
--3----2----3------------|--3--------3--------|--5----5-5-5-5------5-5-5-5-|
--1----0----1----1-1-1-1-|--------------------|----------------------------|


                                                       
----------------------------|-------------------------|
---------------5------------|-------------------------|
---------------5------------|-------------------------|
---------------5------------|--3----2----3------------|
--3----3-3-3-3------3-3-3-3-|--1----0----1----1-1-1-1-|
----------------------------|-------------------------|


                                                       
-------------------------|----------------------------|
-------------------------|---------------5------------|
-------------------------|---------------5------------|
-------------------------|---------------7------------|
--3----2----3------------|---------------7------------|
--1----0----1----1-1-1-1-|--5----5-5-5-5------5-5-5-5-|


                                                                   
-------------------------|--------------------|-------------------|
-------------------------|--------------------|-------------------|
-------------------------|-----------7--------|-------------------|
--7----5----7------------|--3--------7--------|--7----------------|
--5----3----5----5-5-5-5-|--3--------5--------|--7----------------|
-------------------------|--1-----------------|--5----------------|


                                                              
------------------------------|------------------------------|
------------------------------|------------------------------|
------------------------------|--7----------------------7----|
--7----------------------7----|--5--5-5-5-5-5-5-5-5-5-5-5----|
--5--5-5-5-5-5-5-5-5-5-5-5----|------------------------------|
------------------------------|------------------------------|


                                                               
-----------------------------|--------------------------------|
-----------------------------|--------------------------------|
-----------------------------|--------------------------------|
--3---------------------3----|--2--------------2--------------|
--1--1-1-1-1-1-1--1-1-1-1----|--0--0-0-0-0-0-0-0--0-0-0-0-0-0-|
-----------------------------|--------------------------------|


                                                        
------------------------------|------------------------|
------------------------------|------------------------|
------------------------------|------------------------|
--7----------------------7----|--3--------3------------|
--5--5-5-5-5-5-5-5-5-5-5-5----|--1--------1----1-1-1-1-|
------------------------------|------------------------|


                                                                            
------------------------|-------------------|------------------------------|
------------------------|-------------------|------------------------------|
------------------------|-------------------|------------------------------|
------------------------|--7----------------|--7----------------------7----|
--3--------7------------|--5----------------|--5--5-5-5-5-5-5-5-5-5-5-5----|
--1--------5----5-5-5-5-|-------------------|------------------------------|


                                                             
------------------------------|-----------------------------|
------------------------------|-----------------------------|
--7----------------------7----|-----------------------------|
--5--5-5-5-5-5-5-5-5-5-5-5----|--3---------------------3----|
------------------------------|--1--1-1-1-1-1-1--1-1-1-1----|
------------------------------|-----------------------------|


                                                                
--------------------------------|------------------------------|
--------------------------------|------------------------------|
--------------------------------|------------------------------|
--2--------------2--------------|--7----------------------7----|
--0--0-0-0-0-0-0-0--0-0-0-0-0-0-|--5--5-5-5-5-5-5-5-5-5-5-5----|
--------------------------------|------------------------------|


                                                                      
------------------------|------------------------|-------------------|
------------------------|------------------------|-------------------|
------------------------|------------------------|-------------------|
--3--------3------------|------------------------|--7----------------|
--1--------1----1-1-1-1-|--3--------7------------|--5----------------|
------------------------|--1--------5----5-5-5-5-|-------------------|


                                                                           
------------------------|--6----------6----------|------------------------|
--6----------6----------|--8----------8----------|--3----------------3----|
--7----------7----------|--7----7--7--7----7--7--|--3----------------3----|
--7----7--7--7----7--7--|--5---------------------|--3----3--3--3--3--3----|
--5---------------------|------------------------|------------------------|
------------------------|------------------------|------------------------|


                                                                           
------------------------|------------------------|--6---------------------|
--1----------1----------|--6---------------------|--6----------6----------|
--2----------2----------|--7----------7----------|--7----------7----------|
--2----2--2--2----2--2--|--7----7--7--7----7--7--|--8----8--8--8----8--8--|
------------------------|--5---------------------|------------------------|
------------------------|------------------------|------------------------|


                                                                            
--1----------5----------|-------------------|------------------------------|
--1----------5----------|--6----------------|------------------------------|
--2----------5----------|--7----------------|------------------------------|
--3----3--3--7----7--7--|--7----------------|--7----------------------7----|
------------------------|-------------------|--5--5-5-5-5-5-5-5-5-5-5-5----|
------------------------|-------------------|------------------------------|


                                                             
------------------------------|-----------------------------|
------------------------------|-----------------------------|
--7----------------------7----|-----------------------------|
--5--5-5-5-5-5-5-5-5-5-5-5----|--3---------------------3----|
------------------------------|--1--1-1-1-1-1-1--1-1-1-1----|
------------------------------|-----------------------------|


                                                                
--------------------------------|------------------------------|
--------------------------------|------------------------------|
--------------------------------|------------------------------|
--2--------------2--------------|--7----------------------7----|
--0--0-0-0-0-0-0-0--0-0-0-0-0-0-|--5--5-5-5-5-5-5-5-5-5-5-5----|
--------------------------------|------------------------------|


                                                                      
------------------------|------------------------|-------------------|
------------------------|------------------------|-------------------|
------------------------|------------------------|-------------------|
--3--------3------------|------------------------|--7----------------|
--1--------1----1-1-1-1-|--3--------7------------|--5----------------|
------------------------|--1--------5----5-5-5-5-|-------------------|


                                                                            

                                                                    
---------------------------------|---------------------------------|
---------------------------------|---------------------------------|
---------------------------------|---------------------------------|
--7------------------------------|--7------------------------------|
--5--5-5-5-5-5-5-5-5-5-5-5-5-5-5-|--5--5-5-5-5-5-5-5-5-5-5-5-5-5-5-|
---------------------------------|---------------------------------|


                                                              
---------------------------|---------------------------------|
---------------------------|---------------------------------|
---------------------------|---------------------------------|
--3--------------3----2----|--7------------------------------|
--1--1-1-1-1-1-1-1----0----|--5--5-5-5-5-5-5-5-5-5-5-5-5-5-5-|
---------------------------|---------------------------------|


                                                       
----------------------------|-------------------------|
----------------------------|-------------------------|
----------------------------|-------------------------|
----------------------------|-------------------------|
--3-------------------------|--3----2----3------------|
--1----1-1-1-1-1----1-1-1-1-|--1----0----1----1-1-1-1-|


                                                            
---------------------------------|-------------------------|
---------------------------------|-------------------------|
---------------------------------|-------------------------|
--5------------------------------|-------------------------|
--3--3-3-3-3-3-3-3-3-3-3-3-3-3-3-|--7----5----7------------|
---------------------------------|--5----3----5----5-5-5-5-|


                                                                    
---------------------------------|---------------------------------|
---------------------------------|---------------------------------|
---------------------------------|---------------------------------|
--7------------------------------|--7------------------------------|
--5--5-5-5-5-5-5-5-5-5-5-5-5-5-5-|--5--5-5-5-5-5-5-5-5-5-5-5-5-5-5-|
---------------------------------|---------------------------------|


                                                              
---------------------------|---------------------------------|
---------------------------|---------------------------------|
---------------------------|---------------------------------|
--3--------------3----2----|--7------------------------------|
--1--1-1-1-1-1-1-1----0----|--5--5-5-5-5-5-5-5-5-5-5-5-5-5-5-|
---------------------------|---------------------------------|


                                                                            
----------------------------|-------------------------|--------------------|
----------------------------|-------------------------|--------------------|
----------------------------|-------------------------|--------------------|
----------------------------|-------------------------|--------------------|
--5-------------------------|--5----3----5------------|--3--------7--------|
--3----3-3-3-3-3----3-3-3-3-|--3----1----3----3-3-3-3-|--1--------5--------|


                                                   
-------------------|------------------------------|
-------------------|------------------------------|
-------------------|------------------------------|
--7----------------|--7----------------------7----|
--5----------------|--5--5-5-5-5-5-5-5-5-5-5-5----|
-------------------|------------------------------|


                                                             
------------------------------|-----------------------------|
------------------------------|-----------------------------|
--7----------------------7----|-----------------------------|
--5--5-5-5-5-5-5-5-5-5-5-5----|--3---------------------3----|
------------------------------|--1--1-1-1-1-1-1--1-1-1-1----|
------------------------------|-----------------------------|


                                                                
--------------------------------|------------------------------|
--------------------------------|------------------------------|
--------------------------------|------------------------------|
--2--------------2--------------|--7----------------------7----|
--0--0-0-0-0-0-0-0--0-0-0-0-0-0-|--5--5-5-5-5-5-5-5-5-5-5-5----|
--------------------------------|------------------------------|


                                                                      
------------------------|------------------------|-------------------|
------------------------|------------------------|-------------------|
------------------------|------------------------|-------------------|
--3--------3------------|------------------------|--7----------------|
--1--------1----1-1-1-1-|--3--------7------------|--5----------------|
------------------------|--1--------5----5-5-5-5-|-------------------|


                                                              
------------------------------|------------------------------|
------------------------------|------------------------------|
------------------------------|--7----------------------7----|
--7----------------------7----|--5--5-5-5-5-5-5-5-5-5-5-5----|
--5--5-5-5-5-5-5-5-5-5-5-5----|------------------------------|
------------------------------|------------------------------|


                                                               
-----------------------------|--------------------------------|
-----------------------------|--------------------------------|
-----------------------------|--------------------------------|
--3---------------------3----|--2--------------2--------------|
--1--1-1-1-1-1-1--1-1-1-1----|--0--0-0-0-0-0-0-0--0-0-0-0-0-0-|
-----------------------------|--------------------------------|


                                                        
------------------------------|------------------------|
------------------------------|------------------------|
------------------------------|------------------------|
--7----------------------7----|--3--------3------------|
--5--5-5-5-5-5-5-5-5-5-5-5----|--1--------1----1-1-1-1-|
------------------------------|------------------------|


                                                                 
------------------------|-------------------|-------------------|
------------------------|-------------------|-------------------|
------------------------|-------------------|--7----------------|
------------------------|--7----------------|--7----------------|
--3--------7------------|--5----------------|--5----------------|
--1--------5----5-5-5-5-|-------------------|-------------------|


                                                             
-------------------|-------------------|--------------------|
-------------------|-------------------|--------------------|
-------------------|--3----------------|--2--------2--------|
--5----------------|--3----------------|--2--------2--------|
--5----------------|--1----------------|--0--------0--------|
--3----------------|-------------------|--------------------|


                                                        
------------------------------|------------------------|
------------------------------|------------------------|
------------------------------|------------------------|
--7----------------------7----|--3--------3------------|
--5--5-5-5-5-5-5-5-5-5-5-5----|--1--------1----1-1-1-1-|
------------------------------|------------------------|


                                                                            
------------------------|-------------------|------------------------------|
------------------------|-------------------|------------------------------|
------------------------|-------------------|------------------------------|
------------------------|--7----------------|--7----------------------7----|
--3--------7------------|--5----------------|--5--5-5-5-5-5-5-5-5-5-5-5----|
--1--------5----5-5-5-5-|-------------------|------------------------------|


                                                              
------------------------------|------------------------------|
------------------------------|------------------------------|
------------------------------|------------------------------|
------------------------------|--3----------------------3----|
--5----------------------5----|--1--1-1-1-1-1-1-1-1-1-1-1----|
--3--3-3-3-3-3-3-3-3-3-3-3----|------------------------------|


                                                                
--------------------------------|------------------------------|
--------------------------------|------------------------------|
--------------------------------|------------------------------|
--2--------------2--------------|--7----------------------7----|
--0--0-0-0-0-0-0-0--0-0-0-0-0-0-|--5--5-5-5-5-5-5-5-5-5-5-5----|
--------------------------------|------------------------------|


                                                                  
------------------------|--------------------|-------------------|
------------------------|--------------------|-------------------|
------------------------|--------------------|-------------------|
--3--------3------------|--------------------|--7----------------|
--1--------1----1-1-1-1-|--3--------7--------|--5----------------|
------------------------|--1--------5--------|-------------------|

                                Tale Of Revenge                                 


                                                                       Ensiferum
Acoustic
                                                          
------|------------------------|-------------------------|
------|------------------------|-------------------------|
------|-------2-----2-------2--|-----3--3-----3-------3--|
------|--0-------0-------0-----|--5--------5-------5-----|
------|------------------------|-------------------------|
------|------------------------|-------------------------|


                                                                            
------------------------|-------------------------|------------------------|
------------------------|-------------------------|------------------------|
------------------------|-----0--0-----0-------0--|-------2-----2-------2--|
-------3-----3-------3--|--2--------2-------2-----|--0-------0-------0-----|
--1-------1-------1-----|-------------------------|------------------------|
------------------------|-------------------------|------------------------|


                                                                        
-------------------------|--1-------1--0-------0--|-----------1--------|
-------------------------|-------1----------1-----|--3-----------------|
-------------------------|------------------------|--------------------|
-----3--3-----3-------3--|------------------------|--0-----------------|
--1--------1-------1-----|--3----------0----------|--------------------|
-------------------------|------------------------|----------------
Get this song at amazon.com      Ebay     Ringtones Ringtones  


Learn to play: Songwriting, Piano, Harmonica, Guitar

Related Ensiferum Tabs

Little Dreamer tabs
Token Of Time tabs
Guardians Of Fate tabs
Lai Lai Hei Bass tabs
Warriors Quest tabs
Old Man tabs
Battle Song tabs
Tale Of Revenge tabs


Guitar Tabs









All tabs are property and copyright of their owners. All tabs provided for educational purposes only. Privacy Policy, DMCA