Enrique Bunbury

Enrique Bunbury - Y Al Final guitar tab

G|----------------------------------------|

D|---4h6h4--------------------------------|

A|----------6----6----6----6----6---------|

E|------------4----4----4----4------------|

D|----------------------------------------|

A|---2---4---4/7------7---6---6---4-------|

E|-----------------7----------------------|

D|----------------------------------------|

A|---------------/4---4---2---------------|

E|---7---6---7----------------------------|

D|----------------------------------------|

A|----------------------------------------|

E|---4---3/7---6---7---4------------------|

e|---7--7--7--7/6--6--6--6/4--4--4--4-----|

B|----------------------------------------|

G|--8--8--8--8/6--6--6--6/4--4--4--4------|

D|----------------------------------------|

e|---12-12/11-11/7-7-7/9--9/-11-11/-9/-7--|

B|----------------------------------------|

G|-13-13/11-11/8-8-8/10-10/11--11/10-/8---|

D|----------------------------------------|

e|---3--3--3--3/7--7--7--7/4--4--4--4--4--|

B|----------------------------------------|

G|--3--3--3--3/8--8--8--8/4--4--4--4--4---|

D|----------------------------------------|

e|---4--4--4/3--3--3/4--4--4/3--3--3/4--4-|

B|----------------------------------------|

G|--4--4--4/3--3--3/4--4--4/3--3--3/4--4--|

D|----------------------------------------|

G|----------------------------------------|

D|--4h6h4-----------------------------6---|

A|--------6-------4-4/6-------4-4/6-6-----|

E|----------4---7-------4---7-------------|

e|---7--7--7--7/6--6--6--6/4--4--4--4-----|

B|----------------------------------------|

G|--8--8--8--8/6--6--6--6/4--4--4--4------|

D|----------------------------------------|

e|---12-12/11-11/7-7-7/9--9/-11-11/-9/-7--|

B|----------------------------------------|

G|-13-13/11-11/8-8-8/10-10/11--11/10-/8---|

D|----------------------------------------|

e|---3--3--3--3/7--7--7--7/4--4--4--4--4--|

B|----------------------------------------|

G|--3--3--3--3/8--8--8--8/4--4--4--4--4---|

D|----------------------------------------|

e|---4--4--4/3--3--3/4--4--4/3--3--3/4--4-|

B|----------------------------------------|

G|--4--4--4/3--3--3/4--4--4/3--3--3/4--4--|

D|----------------------------------------|

G|----------------------------------------|

D|---------------4h6h4--------------------|

A|----------------------6-----------------|

E|------------------------4---------------|Added by tabs-database.com and our distinguished partners

Get this song at:  amazon.com sheetmusicplus.com

Share your thoughts

0 Comments found